  0
SECTION
  2
HEADER
  9
$ACADVER
  1
AC1009
  9
$INSBASE
 10
0.0
 20
0.0
 30
0.0
  9
$EXTMIN
 10
-80.010985489947416
 20
-131.71201227911089
 30
-0.0015258207003583
  9
$EXTMAX
 10
280.01098716632811
 20
403.5481165140169
 30
0.0000000349246037
  9
$LIMMIN
 10
0.0
 20
0.0
  9
$LIMMAX
 10
0.0
 20
0.0
  9
$ORTHOMODE
 70
     0
  9
$REGENMODE
 70
     1
  9
$FILLMODE
 70
     1
  9
$QTEXTMODE
 70
     0
  9
$MIRRTEXT
 70
     1
  9
$DRAGMODE
 70
     2
  9
$LTSCALE
 40
10.16
  9
$OSMODE
 70
   231
  9
$ATTMODE
 70
     1
  9
$TEXTSIZE
 40
0.0
  9
$TRACEWID
 40
1.0
  9
$TEXTSTYLE
  7
STANDARD
  9
$CLAYER
  8
DATA
  9
$CELTYPE
  6
BYLAYER
  9
$CECOLOR
 62
   256
  9
$DIMSCALE
 40
1.0
  9
$DIMASZ
 40
0.18
  9
$DIMEXO
 40
0.0625
  9
$DIMDLI
 40
0.38
  9
$DIMRND
 40
0.0
  9
$DIMDLE
 40
0.0
  9
$DIMEXE
 40
0.18
  9
$DIMTP
 40
0.0
  9
$DIMTM
 40
0.0
  9
$DIMTXT
 40
0.18
  9
$DIMCEN
 40
0.09
  9
$DIMTSZ
 40
0.0
  9
$DIMTOL
 70
     0
  9
$DIMLIM
 70
     0
  9
$DIMTIH
 70
     1
  9
$DIMTOH
 70
     1
  9
$DIMSE1
 70
     0
  9
$DIMSE2
 70
     0
  9
$DIMTAD
 70
     0
  9
$DIMZIN
 70
     0
  9
$DIMBLK
  1

  9
$DIMASO
 70
     1
  9
$DIMSHO
 70
     1
  9
$DIMPOST
  1

  9
$DIMAPOST
  1

  9
$DIMALT
 70
     0
  9
$DIMALTD
 70
     2
  9
$DIMALTF
 40
25.399999999999999
  9
$DIMLFAC
 40
1.0
  9
$DIMTOFL
 70
     0
  9
$DIMTVP
 40
0.0
  9
$DIMTIX
 70
     0
  9
$DIMSOXD
 70
     0
  9
$DIMSAH
 70
     0
  9
$DIMBLK1
  1

  9
$DIMBLK2
  1

  9
$DIMSTYLE
  2
STANDARD
  9
$DIMCLRD
 70
     0
  9
$DIMCLRE
 70
     0
  9
$DIMCLRT
 70
     0
  9
$DIMTFAC
 40
1.0
  9
$DIMGAP
 40
0.09
  9
$LUNITS
 70
     2
  9
$LUPREC
 70
     4
  9
$SKETCHINC
 40
0.1
  9
$FILLETRAD
 40
0.0
  9
$AUNITS
 70
     0
  9
$AUPREC
 70
     0
  9
$MENU
  1
acad
  9
$ELEVATION
 40
0.0
  9
$PELEVATION
 40
0.0
  9
$THICKNESS
 40
0.0
  9
$LIMCHECK
 70
     0
  9
$BLIPMODE
 70
     0
  9
$CHAMFERA
 40
0.0
  9
$CHAMFERB
 40
0.0
  9
$SKPOLY
 70
     0
  9
$TDCREATE
 40
2455092.6653356482
  9
$TDUPDATE
 40
2455092.67956331
  9
$TDINDWG
 40
0.0003068403
  9
$TDUSRTIMER
 40
0.0003068403
  9
$USRTIMER
 70
     1
  9
$ANGBASE
 50
0.0
  9
$ANGDIR
 70
     0
  9
$PDMODE
 70
     1
  9
$PDSIZE
 40
-2.0
  9
$PLINEWID
 40
0.0
  9
$COORDS
 70
     0
  9
$SPLFRAME
 70
     0
  9
$SPLINETYPE
 70
     6
  9
$SPLINESEGS
 70
     8
  9
$ATTDIA
 70
     0
  9
$ATTREQ
 70
     1
  9
$HANDLING
 70
     1
  9
$HANDSEED
  5
1543
  9
$SURFTAB1
 70
     6
  9
$SURFTAB2
 70
     6
  9
$SURFTYPE
 70
     6
  9
$SURFU
 70
     6
  9
$SURFV
 70
     6
  9
$UCSNAME
  2

  9
$UCSORG
 10
0.0
 20
0.0
 30
0.0
  9
$UCSXDIR
 10
1.0
 20
0.0
 30
0.0
  9
$UCSYDIR
 10
0.0
 20
1.0
 30
0.0
  9
$PUCSNAME
  2

  9
$PUCSORG
 10
0.0
 20
0.0
 30
0.0
  9
$PUCSXDIR
 10
1.0
 20
0.0
 30
0.0
  9
$PUCSYDIR
 10
0.0
 20
1.0
 30
0.0
  9
$USERI1
 70
     0
  9
$USERI2
 70
     0
  9
$USERI3
 70
     0
  9
$USERI4
 70
     0
  9
$USERI5
 70
     0
  9
$USERR1
 40
0.0
  9
$USERR2
 40
0.0
  9
$USERR3
 40
0.0
  9
$USERR4
 40
0.0
  9
$USERR5
 40
0.0
  9
$WORLDVIEW
 70
     1
  9
$SHADEDGE
 70
     3
  9
$SHADEDIF
 70
    70
  9
$TILEMODE
 70
     1
  9
$MAXACTVP
 70
    64
  9
$PLIMCHECK
 70
     0
  9
$PEXTMIN
 10
1.0000000000000000E+020
 20
1.0000000000000000E+020
 30
1.0000000000000000E+020
  9
$PEXTMAX
 10
-1.0000000000000000E+020
 20
-1.0000000000000000E+020
 30
-1.0000000000000000E+020
  9
$PLIMMIN
 10
0.0
 20
0.0
  9
$PLIMMAX
 10
12.0
 20
9.0
  9
$UNITMODE
 70
     0
  9
$VISRETAIN
 70
     0
  9
$PLINEGEN
 70
     1
  9
$PSLTSCALE
 70
     0
  0
ENDSEC
  0
SECTION
  2
TABLES
  0
TABLE
  2
VPORT
 70
     1
  0
VPORT
  2
*ACTIVE
 70
     0
 10
0.0
 20
0.0
 11
1.0
 21
1.0
 12
100.0000008381904
 22
135.91805211745299
 13
0.0
 23
0.0
 14
1.0
 24
1.0
 15
0.0
 25
0.0
 16
0.0
 26
0.0
 36
1.0
 17
0.0
 27
0.0
 37
0.0
 40
539.24964528102703
 41
1.9863184079601981
 42
50.0
 43
0.0
 44
0.0
 50
0.0
 51
0.0
 71
     0
 72
  2000
 73
     1
 74
     1
 75
     0
 76
     0
 77
     0
 78
     0
  0
ENDTAB
  0
TABLE
  2
LTYPE
 70
    11
  0
LTYPE
  2
CONTINUOUS
 70
     0
  3
Solid line
 72
    65
 73
     0
 40
0.0
  0
ENDTAB
  0
TABLE
  2
LAYER
 70
     6
  0
LAYER
  2
0
 70
     0
 62
     7
  6
CONTINUOUS
  0
LAYER
  2
DATA
 70
     0
 62
     7
  6
CONTINUOUS
  0
LAYER
  2
HIBINO-BASE
 70
     0
 62
     7
  6
CONTINUOUS
  0
LAYER
  2
PATTERN_FILL
 70
     0
 62
     7
  6
CONTINUOUS
  0
LAYER
  2
SPEC
 70
     0
 62
     7
  6
CONTINUOUS
  0
LAYER
  2
DIMNSIONS
 70
     0
 62
     7
  6
CONTINUOUS
  0
ENDTAB
  0
TABLE
  2
STYLE
 70
     3
  0
STYLE
  2
STANDARD
 70
     0
 40
0.0
 41
1.0
 50
0.0
 71
     0
 42
0.0
  3
txt
  4
BIGFONT.SHX
  0
ENDTAB
  0
TABLE
  2
VIEW
 70
     0
  0
ENDTAB
  0
TABLE
  2
UCS
 70
     0
  0
ENDTAB
  0
TABLE
  2
APPID
 70
     3
  0
APPID
  2
ACAD
 70
     0
  0
APPID
  2
ACADANNOTATIVE
 70
     0
  0
APPID
  2
ACAD_MLEADERVER
 70
     0
  0
ENDTAB
  0
TABLE
  2
DIMSTYLE
 70
     2
  0
DIMSTYLE
  2
STANDARD
 70
     0
  3

  4

  5

  6

  7

 40
1.0
 41
0.18
 42
0.0625
 43
0.38
 44
0.18
 45
0.0
 46
0.0
 47
0.0
 48
0.0
140
0.18
141
0.09
142
0.0
143
25.399999999999999
144
1.0
145
0.0
146
1.0
147
0.09
 71
     0
 72
     0
 73
     1
 74
     1
 75
     0
 76
     0
 77
     0
 78
     0
170
     0
171
     2
172
     0
173
     0
174
     0
175
     0
176
     0
177
     0
178
     0
  0
ENDTAB
  0
ENDSEC
  0
SECTION
  2
BLOCKS
  0
BLOCK
  8
0
  2
$MODEL_SPACE
 70
     0
 10
0.0
 20
0.0
 30
0.0
  3
$MODEL_SPACE
  1

  0
ENDBLK
  5
C42
  8
0
  0
BLOCK
 67
     1
  8
0
  2
$PAPER_SPACE
 70
     0
 10
0.0
 20
0.0
 30
0.0
  3
$PAPER_SPACE
  1

  0
ENDBLK
  5
C3E
 67
     1
  8
0
  0
ENDSEC
  0
SECTION
  2
ENTITIES
  0
LINE
  5
2D
  8
HIBINO-BASE
  6
CONTINUOUS
 62
     7
 10
-79.999999999999986
 20
403.53181499999999
 30
0.0
 11
279.99999999999989
 21
403.53181499999999
 31
0.0
  0
LINE
  5
2E
  8
HIBINO-BASE
  6
CONTINUOUS
 62
     7
 10
279.99999999999989
 20
-116.46818500000001
 30
0.0
 11
-79.999999999999986
 21
-116.46818500000001
 31
0.0
  0
LINE
  5
2F
  8
HIBINO-BASE
  6
CONTINUOUS
 62
     7
 10
-79.999999999999986
 20
-116.46818500000001
 30
0.0
 11
-79.999999999999986
 21
403.53181499999999
 31
0.0
  0
TEXT
  5
30
  8
HIBINO-BASE
 62
     7
 10
-65.631999999999991
 20
-129.2855405999999
 30
0.0
 40
7.2000883593749991
  1
Hibino Corporation
 41
0.7
 11
-65.631999999999991
 21
-122.0854522406249
 31
0.0
 73
     3
  0
LINE
  5
31
  8
HIBINO-BASE
  6
CONTINUOUS
 62
     7
 10
279.99999999999989
 20
403.53181499999999
 30
0.0
 11
279.99999999999989
 21
-116.46818500000001
 31
0.0
  0
LINE
  5
32
  8
HIBINO-BASE
  6
CONTINUOUS
 62
     7
 10
100.0
 20
-71.468184999999977
 30
0.0
 11
279.99999999999989
 21
-71.468184999999977
 31
0.0
  0
LINE
  5
33
  8
HIBINO-BASE
  6
CONTINUOUS
 62
     7
 10
100.0
 20
-116.46818500000001
 30
0.0
 11
100.0
 21
-71.468184999999977
 31
0.0
  0
TEXT
  5
34
  8
HIBINO-BASE
 62
     7
 10
101.8
 20
-76.485571666666644
 30
0.0
 40
3.2576822916666659
  1
NOTE
 41
0.7
 11
101.8
 21
-73.227889374999975
 31
0.0
 73
     3
  0
LINE
  5
35
  8
HIBINO-BASE
  6
CONTINUOUS
 62
     7
 10
170.0
 20
-116.46818500000001
 30
0.0
 11
170.0
 21
-71.468184999999977
 31
0.0
  0
TEXT
  5
36
  8
HIBINO-BASE
 62
     7
 10
171.7999999999999
 20
-76.485571666666644
 30
0.0
 40
3.2576822916666659
  1
TITLE
 41
0.7
 11
171.7999999999999
 21
-73.227889374999975
 31
0.0
 73
     3
  0
TEXT
  5
37
  8
HIBINO-BASE
 62
     7
 10
200.13677999999999
 20
-129.2855405999999
 30
0.0
 40
7.2000883593749991
  1
ヒビノ株式会社
 41
0.7
 11
200.13677999999999
 21
-122.0854522406249
 31
0.0
 73
     3
  0
LINE
  5
38
  8
HIBINO-BASE
  6
CONTINUOUS
 62
     7
 10
100.0
 20
-96.468184999999963
 30
0.0
 11
279.99999999999989
 21
-96.468184999999963
 31
0.0
  0
TEXT
  5
39
  8
HIBINO-BASE
 62
     7
 10
196.80000000000001
 20
-101.3729316666666
 30
0.0
 40
3.2576822916666659
  1
DRAWN
 41
0.7
 11
196.80000000000001
 21
-98.115249375000005
 31
0.0
 73
     3
  0
TEXT
  5
3A
  8
HIBINO-BASE
 62
     7
 10
146.7999999999999
 20
-101.3729316666666
 30
0.0
 40
3.2576822916666659
  1
DATE
 41
0.7
 11
146.7999999999999
 21
-98.115249375000005
 31
0.0
 73
     3
  0
TEXT
  5
3B
  8
HIBINO-BASE
 62
     7
 10
126.8
 20
-101.3729316666666
 30
0.0
 40
3.2576822916666659
  1
SCALE
 41
0.7
 11
126.8
 21
-98.115249375000005
 31
0.0
 73
     3
  0
TEXT
  5
3C
  8
HIBINO-BASE
 62
     7
 10
171.7999999999999
 20
-101.3729316666666
 30
0.0
 40
3.2576822916666659
  1
DESIGN
 41
0.7
 11
171.7999999999999
 21
-98.115249375000005
 31
0.0
 73
     3
  0
TEXT
  5
3D
  8
HIBINO-BASE
 62
     7
 10
246.7999999999999
 20
-101.3729316666666
 30
0.0
 40
3.2576822916666659
  1
DRAWING NO.
 41
0.7
 11
246.7999999999999
 21
-98.115249375000005
 31
0.0
 73
     3
  0
TEXT
  5
3E
  8
HIBINO-BASE
 62
     7
 10
221.7999999999999
 20
-101.3729316666666
 30
0.0
 40
3.2576822916666659
  1
CHECK
 41
0.7
 11
221.7999999999999
 21
-98.115249375000005
 31
0.0
 73
     3
  0
LINE
  5
3F
  8
HIBINO-BASE
  6
CONTINUOUS
 62
     7
 10
128.74999999999989
 20
-113.96818500000001
 30
0.0
 11
136.25
 21
-106.46818499999991
 31
0.0
  0
TEXT
  5
40
  8
HIBINO-BASE
 62
     7
 10
127.5
 20
-108.68607166666661
 30
0.0
 40
3.2576822916666659
  1
1
 41
0.7
 11
127.5
 21
-105.42838937499999
 31
0.0
 73
     3
  0
LINE
  5
41
  8
HIBINO-BASE
  6
CONTINUOUS
 62
     7
 10
125.0
 20
-116.46818500000001
 30
0.0
 11
125.0
 21
-96.468184999999963
 31
0.0
  0
LINE
  5
42
  8
HIBINO-BASE
  6
CONTINUOUS
 62
     7
 10
145.0
 20
-116.46818500000001
 30
0.0
 11
145.0
 21
-96.468184999999963
 31
0.0
  0
LINE
  5
43
  8
HIBINO-BASE
  6
CONTINUOUS
 62
     7
 10
195.0
 20
-96.468184999999963
 30
0.0
 11
195.0
 21
-116.46818500000001
 31
0.0
  0
LINE
  5
44
  8
HIBINO-BASE
  6
CONTINUOUS
 62
     7
 10
245.0
 20
-96.468184999999963
 30
0.0
 11
245.0
 21
-116.46818500000001
 31
0.0
  0
LINE
  5
45
  8
HIBINO-BASE
  6
CONTINUOUS
 62
     7
 10
220.0
 20
-116.46818500000001
 30
0.0
 11
220.0
 21
-96.468184999999963
 31
0.0
  0
TEXT
  5
46
  8
HIBINO-BASE
 62
     7
 10
146.71307999999999
 20
-110.7408916666666
 30
0.0
 40
3.2576822916666659
  1
'09.09.
 41
0.7
 11
146.71307999999999
 21
-107.483209375
 31
0.0
 73
     3
  0
TEXT
  5
47
  8
HIBINO-BASE
 62
     7
 10
135.0
 20
-112.43607166666661
 30
0.0
 40
3.2576822916666659
  1
2
 41
0.7
 11
135.0
 21
-109.17838937499999
 31
0.0
 73
     3
  0
TEXT
  5
48
  8
HIBINO-BASE
 62
     7
 10
198.0116200220692
 20
-110.7408916666666
 30
0.0
 40
3.2576822916666659
  1
N.Sasaki
 41
0.7
 11
198.0116200220692
 21
-107.483209375
 31
0.0
 73
     3
  0
TEXT
  5
49
  8
HIBINO-BASE
 62
     7
 10
107.76666666666659
 20
-112.51618499999999
 30
0.0
 40
6.5153645833333318
  1
A4
 41
0.7
 11
107.76666666666659
 21
-106.0008204166666
 31
0.0
 73
     3
  0
TEXT
  5
4A
  8
HIBINO-BASE
 62
     7
 10
101.9166666666666
 20
-101.707095
 30
0.0
 40
3.2576822916666659
  1
PAPER SIZE
 41
0.7
 11
101.9166666666666
 21
-98.449412708333327
 31
0.0
 73
     3
  0
POLYLINE
  5
4B
  8
PATTERN_FILL
  6
CONTINUOUS
 62
     7
 66
     1
 10
0.0
 20
0.0
 30
0.0
 70
     1
  0
VERTEX
  5
C71
  8
PATTERN_FILL
  6
CONTINUOUS
 62
     7
 10
55.7481406618937
 20
44.159726726801971
 30
0.0
  0
VERTEX
  5
C72
  8
PATTERN_FILL
  6
CONTINUOUS
 62
     7
 10
54.68748049011387
 20
45.220386898581772
 30
0.0
  0
VERTEX
  5
C73
  8
PATTERN_FILL
  6
CONTINUOUS
 62
     7
 10
53.626820318334033
 20
44.159726726801964
 30
0.0
  0
VERTEX
  5
C74
  8
PATTERN_FILL
  6
CONTINUOUS
 62
     7
 10
54.68748049011387
 20
43.099066555022141
 30
0.0
  0
SEQEND
  5
C75
  8
PATTERN_FILL
  6
CONTINUOUS
 62
     7
  0
POLYLINE
  5
52
  8
PATTERN_FILL
  6
CONTINUOUS
 62
     7
 66
     1
 10
0.0
 20
0.0
 30
0.0
 70
     1
  0
VERTEX
  5
C76
  8
PATTERN_FILL
  6
CONTINUOUS
 62
     7
 10
58.448140661893682
 20
44.159726726801971
 30
0.0
  0
VERTEX
  5
C77
  8
PATTERN_FILL
  6
CONTINUOUS
 62
     7
 10
57.387480490113859
 20
45.220386898581772
 30
0.0
  0
VERTEX
  5
C78
  8
PATTERN_FILL
  6
CONTINUOUS
 62
     7
 10
56.326820318334029
 20
44.159726726801964
 30
0.0
  0
VERTEX
  5
C79
  8
PATTERN_FILL
  6
CONTINUOUS
 62
     7
 10
57.387480490113859
 20
43.099066555022141
 30
0.0
  0
SEQEND
  5
C7A
  8
PATTERN_FILL
  6
CONTINUOUS
 62
     7
  0
POLYLINE
  5
59
  8
PATTERN_FILL
  6
CONTINUOUS
 62
     7
 66
     1
 10
0.0
 20
0.0
 30
0.0
 70
     1
  0
VERTEX
  5
C7B
  8
PATTERN_FILL
  6
CONTINUOUS
 62
     7
 10
61.148140661893649
 20
44.159726726801971
 30
0.0
  0
VERTEX
  5
C7C
  8
PATTERN_FILL
  6
CONTINUOUS
 62
     7
 10
60.08748049011384
 20
45.220386898581772
 30
0.0
  0
VERTEX
  5
C7D
  8
PATTERN_FILL
  6
CONTINUOUS
 62
     7
 10
59.026820318334032
 20
44.159726726801964
 30
0.0
  0
VERTEX
  5
C7E
  8
PATTERN_FILL
  6
CONTINUOUS
 62
     7
 10
60.08748049011384
 20
43.099066555022141
 30
0.0
  0
SEQEND
  5
C7F
  8
PATTERN_FILL
  6
CONTINUOUS
 62
     7
  0
POLYLINE
  5
60
  8
PATTERN_FILL
  6
CONTINUOUS
 62
     7
 66
     1
 10
0.0
 20
0.0
 30
0.0
  0
VERTEX
  5
C80
  8
PATTERN_FILL
  6
CONTINUOUS
 62
     7
 10
52.26093921747232
 20
40.672525282380569
 30
0.0
  0
VERTEX
  5
C81
  8
PATTERN_FILL
  6
CONTINUOUS
 62
     7
 10
53.048140661893711
 20
41.459726726801968
 30
0.0
  0
VERTEX
  5
C82
  8
PATTERN_FILL
  6
CONTINUOUS
 62
     7
 10
52.582195012773667
 20
41.925672375922019
 30
0.0
  0
SEQEND
  5
C83
  8
PATTERN_FILL
  6
CONTINUOUS
 62
     7
  0
POLYLINE
  5
66
  8
PATTERN_FILL
  6
CONTINUOUS
 62
     7
 66
     1
 10
0.0
 20
0.0
 30
0.0
 70
     1
  0
VERTEX
  5
C84
  8
PATTERN_FILL
  6
CONTINUOUS
 62
     7
 10
55.7481406618937
 20
41.459726726801968
 30
0.0
  0
VERTEX
  5
C85
  8
PATTERN_FILL
  6
CONTINUOUS
 62
     7
 10
54.68748049011387
 20
42.520386898581791
 30
0.0
  0
VERTEX
  5
C86
  8
PATTERN_FILL
  6
CONTINUOUS
 62
     7
 10
53.626820318334033
 20
41.459726726801961
 30
0.0
  0
VERTEX
  5
C87
  8
PATTERN_FILL
  6
CONTINUOUS
 62
     7
 10
54.68748049011387
 20
40.399066555022152
 30
0.0
  0
SEQEND
  5
C88
  8
PATTERN_FILL
  6
CONTINUOUS
 62
     7
  0
POLYLINE
  5
6D
  8
PATTERN_FILL
  6
CONTINUOUS
 62
     7
 66
     1
 10
0.0
 20
0.0
 30
0.0
 70
     1
  0
VERTEX
  5
C89
  8
PATTERN_FILL
  6
CONTINUOUS
 62
     7
 10
58.448140661893682
 20
41.459726726801968
 30
0.0
  0
VERTEX
  5
C8A
  8
PATTERN_FILL
  6
CONTINUOUS
 62
     7
 10
57.387480490113859
 20
42.520386898581791
 30
0.0
  0
VERTEX
  5
C8B
  8
PATTERN_FILL
  6
CONTINUOUS
 62
     7
 10
56.326820318334029
 20
41.459726726801961
 30
0.0
  0
VERTEX
  5
C8C
  8
PATTERN_FILL
  6
CONTINUOUS
 62
     7
 10
57.387480490113859
 20
40.399066555022152
 30
0.0
  0
SEQEND
  5
C8D
  8
PATTERN_FILL
  6
CONTINUOUS
 62
     7
  0
POLYLINE
  5
74
  8
PATTERN_FILL
  6
CONTINUOUS
 62
     7
 66
     1
 10
0.0
 20
0.0
 30
0.0
 70
     1
  0
VERTEX
  5
C8E
  8
PATTERN_FILL
  6
CONTINUOUS
 62
     7
 10
61.148140661893649
 20
41.459726726801968
 30
0.0
  0
VERTEX
  5
C8F
  8
PATTERN_FILL
  6
CONTINUOUS
 62
     7
 10
60.08748049011384
 20
42.520386898581791
 30
0.0
  0
VERTEX
  5
C90
  8
PATTERN_FILL
  6
CONTINUOUS
 62
     7
 10
59.026820318334032
 20
41.459726726801961
 30
0.0
  0
VERTEX
  5
C91
  8
PATTERN_FILL
  6
CONTINUOUS
 62
     7
 10
60.08748049011384
 20
40.399066555022152
 30
0.0
  0
SEQEND
  5
C92
  8
PATTERN_FILL
  6
CONTINUOUS
 62
     7
  0
POLYLINE
  5
7B
  8
PATTERN_FILL
  6
CONTINUOUS
 62
     7
 66
     1
 10
0.0
 20
0.0
 30
0.0
  0
VERTEX
  5
C93
  8
PATTERN_FILL
  6
CONTINUOUS
 62
     7
 10
51.598408008602703
 20
38.088139036533342
 30
0.0
  0
VERTEX
  5
C94
  8
PATTERN_FILL
  6
CONTINUOUS
 62
     7
 10
51.987480490113889
 20
37.699066555022164
 30
0.0
  0
VERTEX
  5
C95
  8
PATTERN_FILL
  6
CONTINUOUS
 62
     7
 10
53.048140661893711
 20
38.759726726801972
 30
0.0
  0
VERTEX
  5
C96
  8
PATTERN_FILL
  6
CONTINUOUS
 62
     7
 10
52.03126192349869
 20
39.776605465196987
 30
0.0
  0
SEQEND
  5
C97
  8
PATTERN_FILL
  6
CONTINUOUS
 62
     7
  0
POLYLINE
  5
82
  8
PATTERN_FILL
  6
CONTINUOUS
 62
     7
 66
     1
 10
0.0
 20
0.0
 30
0.0
 70
     1
  0
VERTEX
  5
C98
  8
PATTERN_FILL
  6
CONTINUOUS
 62
     7
 10
55.7481406618937
 20
38.759726726801972
 30
0.0
  0
VERTEX
  5
C99
  8
PATTERN_FILL
  6
CONTINUOUS
 62
     7
 10
54.68748049011387
 20
39.820386898581781
 30
0.0
  0
VERTEX
  5
C9A
  8
PATTERN_FILL
  6
CONTINUOUS
 62
     7
 10
53.626820318334033
 20
38.759726726801972
 30
0.0
  0
VERTEX
  5
C9B
  8
PATTERN_FILL
  6
CONTINUOUS
 62
     7
 10
54.68748049011387
 20
37.699066555022164
 30
0.0
  0
SEQEND
  5
C9C
  8
PATTERN_FILL
  6
CONTINUOUS
 62
     7
  0
POLYLINE
  5
89
  8
PATTERN_FILL
  6
CONTINUOUS
 62
     7
 66
     1
 10
0.0
 20
0.0
 30
0.0
 70
     1
  0
VERTEX
  5
C9D
  8
PATTERN_FILL
  6
CONTINUOUS
 62
     7
 10
58.448140661893682
 20
38.759726726801972
 30
0.0
  0
VERTEX
  5
C9E
  8
PATTERN_FILL
  6
CONTINUOUS
 62
     7
 10
57.387480490113859
 20
39.820386898581781
 30
0.0
  0
VERTEX
  5
C9F
  8
PATTERN_FILL
  6
CONTINUOUS
 62
     7
 10
56.326820318334029
 20
38.759726726801972
 30
0.0
  0
VERTEX
  5
CA0
  8
PATTERN_FILL
  6
CONTINUOUS
 62
     7
 10
57.387480490113859
 20
37.699066555022164
 30
0.0
  0
SEQEND
  5
CA1
  8
PATTERN_FILL
  6
CONTINUOUS
 62
     7
  0
POLYLINE
  5
90
  8
PATTERN_FILL
  6
CONTINUOUS
 62
     7
 66
     1
 10
0.0
 20
0.0
 30
0.0
  0
VERTEX
  5
CA2
  8
PATTERN_FILL
  6
CONTINUOUS
 62
     7
 10
60.778491552837863
 20
39.129375835857772
 30
0.0
  0
VERTEX
  5
CA3
  8
PATTERN_FILL
  6
CONTINUOUS
 62
     7
 10
60.08748049011384
 20
39.820386898581781
 30
0.0
  0
VERTEX
  5
CA4
  8
PATTERN_FILL
  6
CONTINUOUS
 62
     7
 10
59.026820318334032
 20
38.759726726801972
 30
0.0
  0
VERTEX
  5
CA5
  8
PATTERN_FILL
  6
CONTINUOUS
 62
     7
 10
60.08748049011384
 20
37.699066555022164
 30
0.0
  0
VERTEX
  5
CA6
  8
PATTERN_FILL
  6
CONTINUOUS
 62
     7
 10
60.585631148113109
 20
38.197217213021403
 30
0.0
  0
SEQEND
  5
CA7
  8
PATTERN_FILL
  6
CONTINUOUS
 62
     7
  0
POLYLINE
  5
98
  8
PATTERN_FILL
  6
CONTINUOUS
 62
     7
 66
     1
 10
0.0
 20
0.0
 30
0.0
  0
VERTEX
  5
CA8
  8
PATTERN_FILL
  6
CONTINUOUS
 62
     7
 10
51.047474919327748
 20
35.939072125808281
 30
0.0
  0
VERTEX
  5
CA9
  8
PATTERN_FILL
  6
CONTINUOUS
 62
     7
 10
51.987480490113889
 20
34.999066555022161
 30
0.0
  0
VERTEX
  5
CAA
  8
PATTERN_FILL
  6
CONTINUOUS
 62
     7
 10
53.048140661893711
 20
36.059726726801991
 30
0.0
  0
VERTEX
  5
CAB
  8
PATTERN_FILL
  6
CONTINUOUS
 62
     7
 10
51.987480490113889
 20
37.120386898581792
 30
0.0
  0
VERTEX
  5
CAC
  8
PATTERN_FILL
  6
CONTINUOUS
 62
     7
 10
51.130662711449382
 20
36.263569119917292
 30
0.0
  0
SEQEND
  5
CAD
  8
PATTERN_FILL
  6
CONTINUOUS
 62
     7
  0
POLYLINE
  5
A0
  8
PATTERN_FILL
  6
CONTINUOUS
 62
     7
 66
     1
 10
0.0
 20
0.0
 30
0.0
 70
     1
  0
VERTEX
  5
CAE
  8
PATTERN_FILL
  6
CONTINUOUS
 62
     7
 10
55.7481406618937
 20
36.059726726801991
 30
0.0
  0
VERTEX
  5
CAF
  8
PATTERN_FILL
  6
CONTINUOUS
 62
     7
 10
54.68748049011387
 20
37.120386898581792
 30
0.0
  0
VERTEX
  5
CB0
  8
PATTERN_FILL
  6
CONTINUOUS
 62
     7
 10
53.626820318334033
 20
36.059726726801969
 30
0.0
  0
VERTEX
  5
CB1
  8
PATTERN_FILL
  6
CONTINUOUS
 62
     7
 10
54.68748049011387
 20
34.999066555022161
 30
0.0
  0
SEQEND
  5
CB2
  8
PATTERN_FILL
  6
CONTINUOUS
 62
     7
  0
POLYLINE
  5
A7
  8
PATTERN_FILL
  6
CONTINUOUS
 62
     7
 66
     1
 10
0.0
 20
0.0
 30
0.0
 70
     1
  0
VERTEX
  5
CB3
  8
PATTERN_FILL
  6
CONTINUOUS
 62
     7
 10
58.448140661893682
 20
36.059726726801991
 30
0.0
  0
VERTEX
  5
CB4
  8
PATTERN_FILL
  6
CONTINUOUS
 62
     7
 10
57.387480490113859
 20
37.120386898581792
 30
0.0
  0
VERTEX
  5
CB5
  8
PATTERN_FILL
  6
CONTINUOUS
 62
     7
 10
56.326820318334029
 20
36.059726726801969
 30
0.0
  0
VERTEX
  5
CB6
  8
PATTERN_FILL
  6
CONTINUOUS
 62
     7
 10
57.387480490113859
 20
34.999066555022161
 30
0.0
  0
SEQEND
  5
CB7
  8
PATTERN_FILL
  6
CONTINUOUS
 62
     7
  0
POLYLINE
  5
AE
  8
PATTERN_FILL
  6
CONTINUOUS
 62
     7
 66
     1
 10
0.0
 20
0.0
 30
0.0
  0
VERTEX
  5
CB8
  8
PATTERN_FILL
  6
CONTINUOUS
 62
     7
 10
60.315634409980717
 20
36.892232978714922
 30
0.0
  0
VERTEX
  5
CB9
  8
PATTERN_FILL
  6
CONTINUOUS
 62
     7
 10
60.08748049011384
 20
37.120386898581792
 30
0.0
  0
VERTEX
  5
CBA
  8
PATTERN_FILL
  6
CONTINUOUS
 62
     7
 10
59.026820318334032
 20
36.059726726801969
 30
0.0
  0
VERTEX
  5
CBB
  8
PATTERN_FILL
  6
CONTINUOUS
 62
     7
 10
59.95197949394192
 20
35.134567551194081
 30
0.0
  0
SEQEND
  5
CBC
  8
PATTERN_FILL
  6
CONTINUOUS
 62
     7
  0
POLYLINE
  5
B5
  8
PATTERN_FILL
  6
CONTINUOUS
 62
     7
 66
     1
 10
0.0
 20
0.0
 30
0.0
 70
     1
  0
VERTEX
  5
CBD
  8
PATTERN_FILL
  6
CONTINUOUS
 62
     7
 10
53.048140661893711
 20
33.359726726801981
 30
0.0
  0
VERTEX
  5
CBE
  8
PATTERN_FILL
  6
CONTINUOUS
 62
     7
 10
51.987480490113889
 20
34.420386898581803
 30
0.0
  0
VERTEX
  5
CBF
  8
PATTERN_FILL
  6
CONTINUOUS
 62
     7
 10
50.926820318334073
 20
33.359726726801973
 30
0.0
  0
VERTEX
  5
CC0
  8
PATTERN_FILL
  6
CONTINUOUS
 62
     7
 10
51.987480490113889
 20
32.299066555022151
 30
0.0
  0
SEQEND
  5
CC1
  8
PATTERN_FILL
  6
CONTINUOUS
 62
     7
  0
POLYLINE
  5
BC
  8
PATTERN_FILL
  6
CONTINUOUS
 62
     7
 66
     1
 10
0.0
 20
0.0
 30
0.0
 70
     1
  0
VERTEX
  5
CC2
  8
PATTERN_FILL
  6
CONTINUOUS
 62
     7
 10
55.7481406618937
 20
33.359726726801981
 30
0.0
  0
VERTEX
  5
CC3
  8
PATTERN_FILL
  6
CONTINUOUS
 62
     7
 10
54.68748049011387
 20
34.420386898581803
 30
0.0
  0
VERTEX
  5
CC4
  8
PATTERN_FILL
  6
CONTINUOUS
 62
     7
 10
53.626820318334033
 20
33.359726726801973
 30
0.0
  0
VERTEX
  5
CC5
  8
PATTERN_FILL
  6
CONTINUOUS
 62
     7
 10
54.68748049011387
 20
32.299066555022151
 30
0.0
  0
SEQEND
  5
CC6
  8
PATTERN_FILL
  6
CONTINUOUS
 62
     7
  0
POLYLINE
  5
C3
  8
PATTERN_FILL
  6
CONTINUOUS
 62
     7
 66
     1
 10
0.0
 20
0.0
 30
0.0
 70
     1
  0
VERTEX
  5
CC7
  8
PATTERN_FILL
  6
CONTINUOUS
 62
     7
 10
58.448140661893682
 20
33.359726726801981
 30
0.0
  0
VERTEX
  5
CC8
  8
PATTERN_FILL
  6
CONTINUOUS
 62
     7
 10
57.387480490113859
 20
34.420386898581803
 30
0.0
  0
VERTEX
  5
CC9
  8
PATTERN_FILL
  6
CONTINUOUS
 62
     7
 10
56.326820318334029
 20
33.359726726801973
 30
0.0
  0
VERTEX
  5
CCA
  8
PATTERN_FILL
  6
CONTINUOUS
 62
     7
 10
57.387480490113859
 20
32.299066555022151
 30
0.0
  0
SEQEND
  5
CCB
  8
PATTERN_FILL
  6
CONTINUOUS
 62
     7
  0
POLYLINE
  5
CA
  8
PATTERN_FILL
  6
CONTINUOUS
 62
     7
 66
     1
 10
0.0
 20
0.0
 30
0.0
  0
VERTEX
  5
CCC
  8
PATTERN_FILL
  6
CONTINUOUS
 62
     7
 10
59.730323411650382
 20
34.06322982011833
 30
0.0
  0
VERTEX
  5
CCD
  8
PATTERN_FILL
  6
CONTINUOUS
 62
     7
 10
59.026820318334032
 20
33.359726726801973
 30
0.0
  0
VERTEX
  5
CCE
  8
PATTERN_FILL
  6
CONTINUOUS
 62
     7
 10
59.489122351084767
 20
32.89742469405121
 30
0.0
  0
SEQEND
  5
CCF
  8
PATTERN_FILL
  6
CONTINUOUS
 62
     7
  0
POLYLINE
  5
D0
  8
PATTERN_FILL
  6
CONTINUOUS
 62
     7
 66
     1
 10
0.0
 20
0.0
 30
0.0
 70
     1
  0
VERTEX
  5
CD0
  8
PATTERN_FILL
  6
CONTINUOUS
 62
     7
 10
53.048140661893711
 20
30.659726726801981
 30
0.0
  0
VERTEX
  5
CD1
  8
PATTERN_FILL
  6
CONTINUOUS
 62
     7
 10
51.987480490113889
 20
31.7203868985818
 30
0.0
  0
VERTEX
  5
CD2
  8
PATTERN_FILL
  6
CONTINUOUS
 62
     7
 10
50.926820318334073
 20
30.659726726801981
 30
0.0
  0
VERTEX
  5
CD3
  8
PATTERN_FILL
  6
CONTINUOUS
 62
     7
 10
51.987480490113889
 20
29.599066555022159
 30
0.0
  0
SEQEND
  5
CD4
  8
PATTERN_FILL
  6
CONTINUOUS
 62
     7
  0
POLYLINE
  5
D7
  8
PATTERN_FILL
  6
CONTINUOUS
 62
     7
 66
     1
 10
0.0
 20
0.0
 30
0.0
 70
     1
  0
VERTEX
  5
CD5
  8
PATTERN_FILL
  6
CONTINUOUS
 62
     7
 10
55.7481406618937
 20
30.659726726801981
 30
0.0
  0
VERTEX
  5
CD6
  8
PATTERN_FILL
  6
CONTINUOUS
 62
     7
 10
54.68748049011387
 20
31.7203868985818
 30
0.0
  0
VERTEX
  5
CD7
  8
PATTERN_FILL
  6
CONTINUOUS
 62
     7
 10
53.626820318334033
 20
30.659726726801981
 30
0.0
  0
VERTEX
  5
CD8
  8
PATTERN_FILL
  6
CONTINUOUS
 62
     7
 10
54.68748049011387
 20
29.599066555022159
 30
0.0
  0
SEQEND
  5
CD9
  8
PATTERN_FILL
  6
CONTINUOUS
 62
     7
  0
POLYLINE
  5
DE
  8
PATTERN_FILL
  6
CONTINUOUS
 62
     7
 66
     1
 10
0.0
 20
0.0
 30
0.0
 70
     1
  0
VERTEX
  5
CDA
  8
PATTERN_FILL
  6
CONTINUOUS
 62
     7
 10
58.448140661893682
 20
30.659726726801981
 30
0.0
  0
VERTEX
  5
CDB
  8
PATTERN_FILL
  6
CONTINUOUS
 62
     7
 10
57.387480490113859
 20
31.7203868985818
 30
0.0
  0
VERTEX
  5
CDC
  8
PATTERN_FILL
  6
CONTINUOUS
 62
     7
 10
56.326820318334029
 20
30.659726726801981
 30
0.0
  0
VERTEX
  5
CDD
  8
PATTERN_FILL
  6
CONTINUOUS
 62
     7
 10
57.387480490113859
 20
29.599066555022159
 30
0.0
  0
SEQEND
  5
CDE
  8
PATTERN_FILL
  6
CONTINUOUS
 62
     7
  0
POLYLINE
  5
E5
  8
PATTERN_FILL
  6
CONTINUOUS
 62
     7
 66
     1
 10
0.0
 20
0.0
 30
0.0
 70
     1
  0
VERTEX
  5
CDF
  8
PATTERN_FILL
  6
CONTINUOUS
 62
     7
 10
53.048140661893711
 20
27.959726726801971
 30
0.0
  0
VERTEX
  5
CE0
  8
PATTERN_FILL
  6
CONTINUOUS
 62
     7
 10
51.987480490113889
 20
29.020386898581791
 30
0.0
  0
VERTEX
  5
CE1
  8
PATTERN_FILL
  6
CONTINUOUS
 62
     7
 10
50.926820318334073
 20
27.959726726801971
 30
0.0
  0
VERTEX
  5
CE2
  8
PATTERN_FILL
  6
CONTINUOUS
 62
     7
 10
51.987480490113889
 20
26.899066555022159
 30
0.0
  0
SEQEND
  5
CE3
  8
PATTERN_FILL
  6
CONTINUOUS
 62
     7
  0
POLYLINE
  5
EC
  8
PATTERN_FILL
  6
CONTINUOUS
 62
     7
 66
     1
 10
0.0
 20
0.0
 30
0.0
 70
     1
  0
VERTEX
  5
CE4
  8
PATTERN_FILL
  6
CONTINUOUS
 62
     7
 10
55.7481406618937
 20
27.959726726801971
 30
0.0
  0
VERTEX
  5
CE5
  8
PATTERN_FILL
  6
CONTINUOUS
 62
     7
 10
54.68748049011387
 20
29.020386898581791
 30
0.0
  0
VERTEX
  5
CE6
  8
PATTERN_FILL
  6
CONTINUOUS
 62
     7
 10
53.626820318334033
 20
27.959726726801971
 30
0.0
  0
VERTEX
  5
CE7
  8
PATTERN_FILL
  6
CONTINUOUS
 62
     7
 10
54.68748049011387
 20
26.899066555022159
 30
0.0
  0
SEQEND
  5
CE8
  8
PATTERN_FILL
  6
CONTINUOUS
 62
     7
  0
POLYLINE
  5
F3
  8
PATTERN_FILL
  6
CONTINUOUS
 62
     7
 66
     1
 10
0.0
 20
0.0
 30
0.0
 70
     1
  0
VERTEX
  5
CE9
  8
PATTERN_FILL
  6
CONTINUOUS
 62
     7
 10
58.448140661893682
 20
27.959726726801971
 30
0.0
  0
VERTEX
  5
CEA
  8
PATTERN_FILL
  6
CONTINUOUS
 62
     7
 10
57.387480490113859
 20
29.020386898581791
 30
0.0
  0
VERTEX
  5
CEB
  8
PATTERN_FILL
  6
CONTINUOUS
 62
     7
 10
56.326820318334029
 20
27.959726726801971
 30
0.0
  0
VERTEX
  5
CEC
  8
PATTERN_FILL
  6
CONTINUOUS
 62
     7
 10
57.387480490113859
 20
26.899066555022159
 30
0.0
  0
SEQEND
  5
CED
  8
PATTERN_FILL
  6
CONTINUOUS
 62
     7
  0
POLYLINE
  5
FA
  8
PATTERN_FILL
  6
CONTINUOUS
 62
     7
 66
     1
 10
0.0
 20
0.0
 30
0.0
 70
     1
  0
VERTEX
  5
CEE
  8
PATTERN_FILL
  6
CONTINUOUS
 62
     7
 10
53.048140661893711
 20
25.259726726801969
 30
0.0
  0
VERTEX
  5
CEF
  8
PATTERN_FILL
  6
CONTINUOUS
 62
     7
 10
51.987480490113889
 20
26.320386898581798
 30
0.0
  0
VERTEX
  5
CF0
  8
PATTERN_FILL
  6
CONTINUOUS
 62
     7
 10
50.926820318334073
 20
25.259726726801969
 30
0.0
  0
VERTEX
  5
CF1
  8
PATTERN_FILL
  6
CONTINUOUS
 62
     7
 10
51.987480490113889
 20
24.19906655502216
 30
0.0
  0
SEQEND
  5
CF2
  8
PATTERN_FILL
  6
CONTINUOUS
 62
     7
  0
POLYLINE
  5
101
  8
PATTERN_FILL
  6
CONTINUOUS
 62
     7
 66
     1
 10
0.0
 20
0.0
 30
0.0
 70
     1
  0
VERTEX
  5
CF3
  8
PATTERN_FILL
  6
CONTINUOUS
 62
     7
 10
55.7481406618937
 20
25.259726726801969
 30
0.0
  0
VERTEX
  5
CF4
  8
PATTERN_FILL
  6
CONTINUOUS
 62
     7
 10
54.68748049011387
 20
26.320386898581798
 30
0.0
  0
VERTEX
  5
CF5
  8
PATTERN_FILL
  6
CONTINUOUS
 62
     7
 10
53.626820318334033
 20
25.259726726801969
 30
0.0
  0
VERTEX
  5
CF6
  8
PATTERN_FILL
  6
CONTINUOUS
 62
     7
 10
54.68748049011387
 20
24.19906655502216
 30
0.0
  0
SEQEND
  5
CF7
  8
PATTERN_FILL
  6
CONTINUOUS
 62
     7
  0
POLYLINE
  5
108
  8
PATTERN_FILL
  6
CONTINUOUS
 62
     7
 66
     1
 10
0.0
 20
0.0
 30
0.0
  0
VERTEX
  5
CF8
  8
PATTERN_FILL
  6
CONTINUOUS
 62
     7
 10
58.001348695695022
 20
25.706518693000628
 30
0.0
  0
VERTEX
  5
CF9
  8
PATTERN_FILL
  6
CONTINUOUS
 62
     7
 10
57.387480490113859
 20
26.320386898581798
 30
0.0
  0
VERTEX
  5
CFA
  8
PATTERN_FILL
  6
CONTINUOUS
 62
     7
 10
56.326820318334029
 20
25.259726726801969
 30
0.0
  0
VERTEX
  5
CFB
  8
PATTERN_FILL
  6
CONTINUOUS
 62
     7
 10
57.387480490113859
 20
24.19906655502216
 30
0.0
  0
VERTEX
  5
CFC
  8
PATTERN_FILL
  6
CONTINUOUS
 62
     7
 10
57.768239843765279
 20
24.579825908673591
 30
0.0
  0
SEQEND
  5
CFD
  8
PATTERN_FILL
  6
CONTINUOUS
 62
     7
  0
POLYLINE
  5
110
  8
PATTERN_FILL
  6
CONTINUOUS
 62
     7
 66
     1
 10
0.0
 20
0.0
 30
0.0
  0
VERTEX
  5
CFE
  8
PATTERN_FILL
  6
CONTINUOUS
 62
     7
 10
15.401591992034319
 20
38.088139036533342
 30
0.0
  0
VERTEX
  5
CFF
  8
PATTERN_FILL
  6
CONTINUOUS
 62
     7
 10
15.01251951052312
 20
37.699066555022164
 30
0.0
  0
VERTEX
  5
D00
  8
PATTERN_FILL
  6
CONTINUOUS
 62
     7
 10
13.951859338743271
 20
38.759726726801972
 30
0.0
  0
VERTEX
  5
D01
  8
PATTERN_FILL
  6
CONTINUOUS
 62
     7
 10
14.968738077138321
 20
39.776605465196987
 30
0.0
  0
SEQEND
  5
D02
  8
PATTERN_FILL
  6
CONTINUOUS
 62
     7
  0
POLYLINE
  5
117
  8
PATTERN_FILL
  6
CONTINUOUS
 62
     7
 66
     1
 10
0.0
 20
0.0
 30
0.0
 70
     1
  0
VERTEX
  5
D03
  8
PATTERN_FILL
  6
CONTINUOUS
 62
     7
 10
11.2518593387432
 20
38.759726726801972
 30
0.0
  0
VERTEX
  5
D04
  8
PATTERN_FILL
  6
CONTINUOUS
 62
     7
 10
12.312519510523069
 20
39.820386898581781
 30
0.0
  0
VERTEX
  5
D05
  8
PATTERN_FILL
  6
CONTINUOUS
 62
     7
 10
13.373179682302929
 20
38.759726726801972
 30
0.0
  0
VERTEX
  5
D06
  8
PATTERN_FILL
  6
CONTINUOUS
 62
     7
 10
12.312519510523069
 20
37.699066555022164
 30
0.0
  0
SEQEND
  5
D07
  8
PATTERN_FILL
  6
CONTINUOUS
 62
     7
  0
POLYLINE
  5
11E
  8
PATTERN_FILL
  6
CONTINUOUS
 62
     7
 66
     1
 10
0.0
 20
0.0
 30
0.0
 70
     1
  0
VERTEX
  5
D08
  8
PATTERN_FILL
  6
CONTINUOUS
 62
     7
 10
8.5518593387431423
 20
38.759726726801972
 30
0.0
  0
VERTEX
  5
D09
  8
PATTERN_FILL
  6
CONTINUOUS
 62
     7
 10
9.6125195105229722
 20
39.820386898581781
 30
0.0
  0
VERTEX
  5
D0A
  8
PATTERN_FILL
  6
CONTINUOUS
 62
     7
 10
10.673179682302839
 20
38.759726726801972
 30
0.0
  0
VERTEX
  5
D0B
  8
PATTERN_FILL
  6
CONTINUOUS
 62
     7
 10
9.6125195105229722
 20
37.699066555022164
 30
0.0
  0
SEQEND
  5
D0C
  8
PATTERN_FILL
  6
CONTINUOUS
 62
     7
  0
POLYLINE
  5
125
  8
PATTERN_FILL
  6
CONTINUOUS
 62
     7
 66
     1
 10
0.0
 20
0.0
 30
0.0
  0
VERTEX
  5
D0D
  8
PATTERN_FILL
  6
CONTINUOUS
 62
     7
 10
6.22150844779891
 20
39.129375835857772
 30
0.0
  0
VERTEX
  5
D0E
  8
PATTERN_FILL
  6
CONTINUOUS
 62
     7
 10
6.9125195105229267
 20
39.820386898581781
 30
0.0
  0
VERTEX
  5
D0F
  8
PATTERN_FILL
  6
CONTINUOUS
 62
     7
 10
7.9731796823027841
 20
38.759726726801972
 30
0.0
  0
VERTEX
  5
D10
  8
PATTERN_FILL
  6
CONTINUOUS
 62
     7
 10
6.9125195105229267
 20
37.699066555022164
 30
0.0
  0
VERTEX
  5
D11
  8
PATTERN_FILL
  6
CONTINUOUS
 62
     7
 10
6.4143688525236513
 20
38.197217213021403
 30
0.0
  0
SEQEND
  5
D12
  8
PATTERN_FILL
  6
CONTINUOUS
 62
     7
  0
POLYLINE
  5
12D
  8
PATTERN_FILL
  6
CONTINUOUS
 62
     7
 66
     1
 10
0.0
 20
0.0
 30
0.0
  0
VERTEX
  5
D13
  8
PATTERN_FILL
  6
CONTINUOUS
 62
     7
 10
15.952525081309259
 20
35.939072125808281
 30
0.0
  0
VERTEX
  5
D14
  8
PATTERN_FILL
  6
CONTINUOUS
 62
     7
 10
15.01251951052312
 20
34.999066555022161
 30
0.0
  0
VERTEX
  5
D15
  8
PATTERN_FILL
  6
CONTINUOUS
 62
     7
 10
13.951859338743271
 20
36.059726726801991
 30
0.0
  0
VERTEX
  5
D16
  8
PATTERN_FILL
  6
CONTINUOUS
 62
     7
 10
15.01251951052312
 20
37.120386898581792
 30
0.0
  0
VERTEX
  5
D17
  8
PATTERN_FILL
  6
CONTINUOUS
 62
     7
 10
15.86933728918765
 20
36.263569119917292
 30
0.0
  0
SEQEND
  5
D18
  8
PATTERN_FILL
  6
CONTINUOUS
 62
     7
  0
POLYLINE
  5
135
  8
PATTERN_FILL
  6
CONTINUOUS
 62
     7
 66
     1
 10
0.0
 20
0.0
 30
0.0
 70
     1
  0
VERTEX
  5
D19
  8
PATTERN_FILL
  6
CONTINUOUS
 62
     7
 10
11.2518593387432
 20
36.059726726801991
 30
0.0
  0
VERTEX
  5
D1A
  8
PATTERN_FILL
  6
CONTINUOUS
 62
     7
 10
12.312519510523069
 20
37.120386898581792
 30
0.0
  0
VERTEX
  5
D1B
  8
PATTERN_FILL
  6
CONTINUOUS
 62
     7
 10
13.373179682302929
 20
36.059726726801969
 30
0.0
  0
VERTEX
  5
D1C
  8
PATTERN_FILL
  6
CONTINUOUS
 62
     7
 10
12.312519510523069
 20
34.999066555022161
 30
0.0
  0
SEQEND
  5
D1D
  8
PATTERN_FILL
  6
CONTINUOUS
 62
     7
  0
POLYLINE
  5
13C
  8
PATTERN_FILL
  6
CONTINUOUS
 62
     7
 66
     1
 10
0.0
 20
0.0
 30
0.0
 70
     1
  0
VERTEX
  5
D1E
  8
PATTERN_FILL
  6
CONTINUOUS
 62
     7
 10
8.5518593387431423
 20
36.059726726801991
 30
0.0
  0
VERTEX
  5
D1F
  8
PATTERN_FILL
  6
CONTINUOUS
 62
     7
 10
9.6125195105229722
 20
37.120386898581792
 30
0.0
  0
VERTEX
  5
D20
  8
PATTERN_FILL
  6
CONTINUOUS
 62
     7
 10
10.673179682302839
 20
36.059726726801969
 30
0.0
  0
VERTEX
  5
D21
  8
PATTERN_FILL
  6
CONTINUOUS
 62
     7
 10
9.6125195105229722
 20
34.999066555022161
 30
0.0
  0
SEQEND
  5
D22
  8
PATTERN_FILL
  6
CONTINUOUS
 62
     7
  0
POLYLINE
  5
143
  8
PATTERN_FILL
  6
CONTINUOUS
 62
     7
 66
     1
 10
0.0
 20
0.0
 30
0.0
  0
VERTEX
  5
D23
  8
PATTERN_FILL
  6
CONTINUOUS
 62
     7
 10
6.6843655906560411
 20
36.892232978714922
 30
0.0
  0
VERTEX
  5
D24
  8
PATTERN_FILL
  6
CONTINUOUS
 62
     7
 10
6.9125195105229267
 20
37.120386898581792
 30
0.0
  0
VERTEX
  5
D25
  8
PATTERN_FILL
  6
CONTINUOUS
 62
     7
 10
7.9731796823027841
 20
36.059726726801969
 30
0.0
  0
VERTEX
  5
D26
  8
PATTERN_FILL
  6
CONTINUOUS
 62
     7
 10
7.04802050669484
 20
35.134567551194081
 30
0.0
  0
SEQEND
  5
D27
  8
PATTERN_FILL
  6
CONTINUOUS
 62
     7
  0
POLYLINE
  5
14A
  8
PATTERN_FILL
  6
CONTINUOUS
 62
     7
 66
     1
 10
0.0
 20
0.0
 30
0.0
 70
     1
  0
VERTEX
  5
D28
  8
PATTERN_FILL
  6
CONTINUOUS
 62
     7
 10
13.951859338743271
 20
33.359726726801981
 30
0.0
  0
VERTEX
  5
D29
  8
PATTERN_FILL
  6
CONTINUOUS
 62
     7
 10
15.01251951052312
 20
34.420386898581803
 30
0.0
  0
VERTEX
  5
D2A
  8
PATTERN_FILL
  6
CONTINUOUS
 62
     7
 10
16.07317968230296
 20
33.359726726801973
 30
0.0
  0
VERTEX
  5
D2B
  8
PATTERN_FILL
  6
CONTINUOUS
 62
     7
 10
15.01251951052312
 20
32.299066555022151
 30
0.0
  0
SEQEND
  5
D2C
  8
PATTERN_FILL
  6
CONTINUOUS
 62
     7
  0
POLYLINE
  5
151
  8
PATTERN_FILL
  6
CONTINUOUS
 62
     7
 66
     1
 10
0.0
 20
0.0
 30
0.0
 70
     1
  0
VERTEX
  5
D2D
  8
PATTERN_FILL
  6
CONTINUOUS
 62
     7
 10
11.2518593387432
 20
33.359726726801981
 30
0.0
  0
VERTEX
  5
D2E
  8
PATTERN_FILL
  6
CONTINUOUS
 62
     7
 10
12.312519510523069
 20
34.420386898581803
 30
0.0
  0
VERTEX
  5
D2F
  8
PATTERN_FILL
  6
CONTINUOUS
 62
     7
 10
13.373179682302929
 20
33.359726726801973
 30
0.0
  0
VERTEX
  5
D30
  8
PATTERN_FILL
  6
CONTINUOUS
 62
     7
 10
12.312519510523069
 20
32.299066555022151
 30
0.0
  0
SEQEND
  5
D31
  8
PATTERN_FILL
  6
CONTINUOUS
 62
     7
  0
POLYLINE
  5
158
  8
PATTERN_FILL
  6
CONTINUOUS
 62
     7
 66
     1
 10
0.0
 20
0.0
 30
0.0
 70
     1
  0
VERTEX
  5
D32
  8
PATTERN_FILL
  6
CONTINUOUS
 62
     7
 10
8.5518593387431423
 20
33.359726726801981
 30
0.0
  0
VERTEX
  5
D33
  8
PATTERN_FILL
  6
CONTINUOUS
 62
     7
 10
9.6125195105229722
 20
34.420386898581803
 30
0.0
  0
VERTEX
  5
D34
  8
PATTERN_FILL
  6
CONTINUOUS
 62
     7
 10
10.673179682302839
 20
33.359726726801973
 30
0.0
  0
VERTEX
  5
D35
  8
PATTERN_FILL
  6
CONTINUOUS
 62
     7
 10
9.6125195105229722
 20
32.299066555022151
 30
0.0
  0
SEQEND
  5
D36
  8
PATTERN_FILL
  6
CONTINUOUS
 62
     7
  0
POLYLINE
  5
15F
  8
PATTERN_FILL
  6
CONTINUOUS
 62
     7
 66
     1
 10
0.0
 20
0.0
 30
0.0
  0
VERTEX
  5
D37
  8
PATTERN_FILL
  6
CONTINUOUS
 62
     7
 10
7.2696765889863979
 20
34.06322982011833
 30
0.0
  0
VERTEX
  5
D38
  8
PATTERN_FILL
  6
CONTINUOUS
 62
     7
 10
7.9731796823027841
 20
33.359726726801973
 30
0.0
  0
VERTEX
  5
D39
  8
PATTERN_FILL
  6
CONTINUOUS
 62
     7
 10
7.5108776495520138
 20
32.89742469405121
 30
0.0
  0
SEQEND
  5
D3A
  8
PATTERN_FILL
  6
CONTINUOUS
 62
     7
  0
POLYLINE
  5
165
  8
PATTERN_FILL
  6
CONTINUOUS
 62
     7
 66
     1
 10
0.0
 20
0.0
 30
0.0
  0
VERTEX
  5
D3B
  8
PATTERN_FILL
  6
CONTINUOUS
 62
     7
 10
17.531416444017989
 20
29.780169621527278
 30
0.0
  0
VERTEX
  5
D3C
  8
PATTERN_FILL
  6
CONTINUOUS
 62
     7
 10
16.651859338743311
 20
30.659726726801981
 30
0.0
  0
VERTEX
  5
D3D
  8
PATTERN_FILL
  6
CONTINUOUS
 62
     7
 10
17.172470434238189
 20
31.18033782229686
 30
0.0
  0
SEQEND
  5
D3E
  8
PATTERN_FILL
  6
CONTINUOUS
 62
     7
  0
POLYLINE
  5
16B
  8
PATTERN_FILL
  6
CONTINUOUS
 62
     7
 66
     1
 10
0.0
 20
0.0
 30
0.0
 70
     1
  0
VERTEX
  5
D3F
  8
PATTERN_FILL
  6
CONTINUOUS
 62
     7
 10
13.951859338743271
 20
30.659726726801981
 30
0.0
  0
VERTEX
  5
D40
  8
PATTERN_FILL
  6
CONTINUOUS
 62
     7
 10
15.01251951052312
 20
31.7203868985818
 30
0.0
  0
VERTEX
  5
D41
  8
PATTERN_FILL
  6
CONTINUOUS
 62
     7
 10
16.07317968230296
 20
30.659726726801981
 30
0.0
  0
VERTEX
  5
D42
  8
PATTERN_FILL
  6
CONTINUOUS
 62
     7
 10
15.01251951052312
 20
29.599066555022159
 30
0.0
  0
SEQEND
  5
D43
  8
PATTERN_FILL
  6
CONTINUOUS
 62
     7
  0
POLYLINE
  5
172
  8
PATTERN_FILL
  6
CONTINUOUS
 62
     7
 66
     1
 10
0.0
 20
0.0
 30
0.0
 70
     1
  0
VERTEX
  5
D44
  8
PATTERN_FILL
  6
CONTINUOUS
 62
     7
 10
11.2518593387432
 20
30.659726726801981
 30
0.0
  0
VERTEX
  5
D45
  8
PATTERN_FILL
  6
CONTINUOUS
 62
     7
 10
12.312519510523069
 20
31.7203868985818
 30
0.0
  0
VERTEX
  5
D46
  8
PATTERN_FILL
  6
CONTINUOUS
 62
     7
 10
13.373179682302929
 20
30.659726726801981
 30
0.0
  0
VERTEX
  5
D47
  8
PATTERN_FILL
  6
CONTINUOUS
 62
     7
 10
12.312519510523069
 20
29.599066555022159
 30
0.0
  0
SEQEND
  5
D48
  8
PATTERN_FILL
  6
CONTINUOUS
 62
     7
  0
POLYLINE
  5
179
  8
PATTERN_FILL
  6
CONTINUOUS
 62
     7
 66
     1
 10
0.0
 20
0.0
 30
0.0
 70
     1
  0
VERTEX
  5
D49
  8
PATTERN_FILL
  6
CONTINUOUS
 62
     7
 10
8.5518593387431423
 20
30.659726726801981
 30
0.0
  0
VERTEX
  5
D4A
  8
PATTERN_FILL
  6
CONTINUOUS
 62
     7
 10
9.6125195105229722
 20
31.7203868985818
 30
0.0
  0
VERTEX
  5
D4B
  8
PATTERN_FILL
  6
CONTINUOUS
 62
     7
 10
10.673179682302839
 20
30.659726726801981
 30
0.0
  0
VERTEX
  5
D4C
  8
PATTERN_FILL
  6
CONTINUOUS
 62
     7
 10
9.6125195105229722
 20
29.599066555022159
 30
0.0
  0
SEQEND
  5
D4D
  8
PATTERN_FILL
  6
CONTINUOUS
 62
     7
  0
POLYLINE
  5
180
  8
PATTERN_FILL
  6
CONTINUOUS
 62
     7
 66
     1
 10
0.0
 20
0.0
 30
0.0
  0
VERTEX
  5
D4E
  8
PATTERN_FILL
  6
CONTINUOUS
 62
     7
 10
18.156257438409138
 20
27.342804482908161
 30
0.0
  0
VERTEX
  5
D4F
  8
PATTERN_FILL
  6
CONTINUOUS
 62
     7
 10
17.712519510523119
 20
26.899066555022159
 30
0.0
  0
VERTEX
  5
D50
  8
PATTERN_FILL
  6
CONTINUOUS
 62
     7
 10
16.651859338743311
 20
27.959726726801971
 30
0.0
  0
VERTEX
  5
D51
  8
PATTERN_FILL
  6
CONTINUOUS
 62
     7
 10
17.712519510523119
 20
29.020386898581791
 30
0.0
  0
VERTEX
  5
D52
  8
PATTERN_FILL
  6
CONTINUOUS
 62
     7
 10
17.73090772975652
 20
29.001998679348389
 30
0.0
  0
SEQEND
  5
D53
  8
PATTERN_FILL
  6
CONTINUOUS
 62
     7
  0
POLYLINE
  5
188
  8
PATTERN_FILL
  6
CONTINUOUS
 62
     7
 66
     1
 10
0.0
 20
0.0
 30
0.0
 70
     1
  0
VERTEX
  5
D54
  8
PATTERN_FILL
  6
CONTINUOUS
 62
     7
 10
13.951859338743271
 20
27.959726726801971
 30
0.0
  0
VERTEX
  5
D55
  8
PATTERN_FILL
  6
CONTINUOUS
 62
     7
 10
15.01251951052312
 20
29.020386898581791
 30
0.0
  0
VERTEX
  5
D56
  8
PATTERN_FILL
  6
CONTINUOUS
 62
     7
 10
16.07317968230296
 20
27.959726726801971
 30
0.0
  0
VERTEX
  5
D57
  8
PATTERN_FILL
  6
CONTINUOUS
 62
     7
 10
15.01251951052312
 20
26.899066555022159
 30
0.0
  0
SEQEND
  5
D58
  8
PATTERN_FILL
  6
CONTINUOUS
 62
     7
  0
POLYLINE
  5
18F
  8
PATTERN_FILL
  6
CONTINUOUS
 62
     7
 66
     1
 10
0.0
 20
0.0
 30
0.0
 70
     1
  0
VERTEX
  5
D59
  8
PATTERN_FILL
  6
CONTINUOUS
 62
     7
 10
11.2518593387432
 20
27.959726726801971
 30
0.0
  0
VERTEX
  5
D5A
  8
PATTERN_FILL
  6
CONTINUOUS
 62
     7
 10
12.312519510523069
 20
29.020386898581791
 30
0.0
  0
VERTEX
  5
D5B
  8
PATTERN_FILL
  6
CONTINUOUS
 62
     7
 10
13.373179682302929
 20
27.959726726801971
 30
0.0
  0
VERTEX
  5
D5C
  8
PATTERN_FILL
  6
CONTINUOUS
 62
     7
 10
12.312519510523069
 20
26.899066555022159
 30
0.0
  0
SEQEND
  5
D5D
  8
PATTERN_FILL
  6
CONTINUOUS
 62
     7
  0
POLYLINE
  5
196
  8
PATTERN_FILL
  6
CONTINUOUS
 62
     7
 66
     1
 10
0.0
 20
0.0
 30
0.0
 70
     1
  0
VERTEX
  5
D5E
  8
PATTERN_FILL
  6
CONTINUOUS
 62
     7
 10
8.5518593387431423
 20
27.959726726801971
 30
0.0
  0
VERTEX
  5
D5F
  8
PATTERN_FILL
  6
CONTINUOUS
 62
     7
 10
9.6125195105229722
 20
29.020386898581791
 30
0.0
  0
VERTEX
  5
D60
  8
PATTERN_FILL
  6
CONTINUOUS
 62
     7
 10
10.673179682302839
 20
27.959726726801971
 30
0.0
  0
VERTEX
  5
D61
  8
PATTERN_FILL
  6
CONTINUOUS
 62
     7
 10
9.6125195105229722
 20
26.899066555022159
 30
0.0
  0
SEQEND
  5
D62
  8
PATTERN_FILL
  6
CONTINUOUS
 62
     7
  0
POLYLINE
  5
19D
  8
PATTERN_FILL
  6
CONTINUOUS
 62
     7
 66
     1
 10
0.0
 20
0.0
 30
0.0
 70
     1
  0
VERTEX
  5
D63
  8
PATTERN_FILL
  6
CONTINUOUS
 62
     7
 10
16.651859338743311
 20
25.259726726801969
 30
0.0
  0
VERTEX
  5
D64
  8
PATTERN_FILL
  6
CONTINUOUS
 62
     7
 10
17.712519510523119
 20
26.320386898581798
 30
0.0
  0
VERTEX
  5
D65
  8
PATTERN_FILL
  6
CONTINUOUS
 62
     7
 10
18.773179682302949
 20
25.259726726801969
 30
0.0
  0
VERTEX
  5
D66
  8
PATTERN_FILL
  6
CONTINUOUS
 62
     7
 10
17.712519510523119
 20
24.19906655502216
 30
0.0
  0
SEQEND
  5
D67
  8
PATTERN_FILL
  6
CONTINUOUS
 62
     7
  0
POLYLINE
  5
1A4
  8
PATTERN_FILL
  6
CONTINUOUS
 62
     7
 66
     1
 10
0.0
 20
0.0
 30
0.0
 70
     1
  0
VERTEX
  5
D68
  8
PATTERN_FILL
  6
CONTINUOUS
 62
     7
 10
13.951859338743271
 20
25.259726726801969
 30
0.0
  0
VERTEX
  5
D69
  8
PATTERN_FILL
  6
CONTINUOUS
 62
     7
 10
15.01251951052312
 20
26.320386898581798
 30
0.0
  0
VERTEX
  5
D6A
  8
PATTERN_FILL
  6
CONTINUOUS
 62
     7
 10
16.07317968230296
 20
25.259726726801969
 30
0.0
  0
VERTEX
  5
D6B
  8
PATTERN_FILL
  6
CONTINUOUS
 62
     7
 10
15.01251951052312
 20
24.19906655502216
 30
0.0
  0
SEQEND
  5
D6C
  8
PATTERN_FILL
  6
CONTINUOUS
 62
     7
  0
POLYLINE
  5
1AB
  8
PATTERN_FILL
  6
CONTINUOUS
 62
     7
 66
     1
 10
0.0
 20
0.0
 30
0.0
 70
     1
  0
VERTEX
  5
D6D
  8
PATTERN_FILL
  6
CONTINUOUS
 62
     7
 10
11.2518593387432
 20
25.259726726801969
 30
0.0
  0
VERTEX
  5
D6E
  8
PATTERN_FILL
  6
CONTINUOUS
 62
     7
 10
12.312519510523069
 20
26.320386898581798
 30
0.0
  0
VERTEX
  5
D6F
  8
PATTERN_FILL
  6
CONTINUOUS
 62
     7
 10
13.373179682302929
 20
25.259726726801969
 30
0.0
  0
VERTEX
  5
D70
  8
PATTERN_FILL
  6
CONTINUOUS
 62
     7
 10
12.312519510523069
 20
24.19906655502216
 30
0.0
  0
SEQEND
  5
D71
  8
PATTERN_FILL
  6
CONTINUOUS
 62
     7
  0
POLYLINE
  5
1B2
  8
PATTERN_FILL
  6
CONTINUOUS
 62
     7
 66
     1
 10
0.0
 20
0.0
 30
0.0
  0
VERTEX
  5
D72
  8
PATTERN_FILL
  6
CONTINUOUS
 62
     7
 10
8.9986513049418022
 20
25.706518693000628
 30
0.0
  0
VERTEX
  5
D73
  8
PATTERN_FILL
  6
CONTINUOUS
 62
     7
 10
9.6125195105229722
 20
26.320386898581798
 30
0.0
  0
VERTEX
  5
D74
  8
PATTERN_FILL
  6
CONTINUOUS
 62
     7
 10
10.673179682302839
 20
25.259726726801969
 30
0.0
  0
VERTEX
  5
D75
  8
PATTERN_FILL
  6
CONTINUOUS
 62
     7
 10
9.6125195105229722
 20
24.19906655502216
 30
0.0
  0
VERTEX
  5
D76
  8
PATTERN_FILL
  6
CONTINUOUS
 62
     7
 10
9.2317601568715446
 20
24.579825908673591
 30
0.0
  0
SEQEND
  5
D77
  8
PATTERN_FILL
  6
CONTINUOUS
 62
     7
  0
POLYLINE
  5
1BA
  8
PATTERN_FILL
  6
CONTINUOUS
 62
     7
 66
     1
 10
0.0
 20
0.0
 30
0.0
  0
VERTEX
  5
D78
  8
PATTERN_FILL
  6
CONTINUOUS
 62
     7
 10
49.468583556619024
 20
29.780169621527278
 30
0.0
  0
VERTEX
  5
D79
  8
PATTERN_FILL
  6
CONTINUOUS
 62
     7
 10
50.348140661893702
 20
30.659726726801981
 30
0.0
  0
VERTEX
  5
D7A
  8
PATTERN_FILL
  6
CONTINUOUS
 62
     7
 10
49.827529566398823
 20
31.18033782229686
 30
0.0
  0
SEQEND
  5
D7B
  8
PATTERN_FILL
  6
CONTINUOUS
 62
     7
  0
POLYLINE
  5
1C0
  8
PATTERN_FILL
  6
CONTINUOUS
 62
     7
 66
     1
 10
0.0
 20
0.0
 30
0.0
  0
VERTEX
  5
D7C
  8
PATTERN_FILL
  6
CONTINUOUS
 62
     7
 10
48.843742562227867
 20
27.342804482908161
 30
0.0
  0
VERTEX
  5
D7D
  8
PATTERN_FILL
  6
CONTINUOUS
 62
     7
 10
49.287480490113893
 20
26.899066555022159
 30
0.0
  0
VERTEX
  5
D7E
  8
PATTERN_FILL
  6
CONTINUOUS
 62
     7
 10
50.348140661893702
 20
27.959726726801971
 30
0.0
  0
VERTEX
  5
D7F
  8
PATTERN_FILL
  6
CONTINUOUS
 62
     7
 10
49.287480490113893
 20
29.020386898581791
 30
0.0
  0
VERTEX
  5
D80
  8
PATTERN_FILL
  6
CONTINUOUS
 62
     7
 10
49.269092270880492
 20
29.001998679348389
 30
0.0
  0
SEQEND
  5
D81
  8
PATTERN_FILL
  6
CONTINUOUS
 62
     7
  0
POLYLINE
  5
1C8
  8
PATTERN_FILL
  6
CONTINUOUS
 62
     7
 66
     1
 10
0.0
 20
0.0
 30
0.0
 70
     1
  0
VERTEX
  5
D82
  8
PATTERN_FILL
  6
CONTINUOUS
 62
     7
 10
50.348140661893702
 20
25.259726726801969
 30
0.0
  0
VERTEX
  5
D83
  8
PATTERN_FILL
  6
CONTINUOUS
 62
     7
 10
49.287480490113893
 20
26.320386898581798
 30
0.0
  0
VERTEX
  5
D84
  8
PATTERN_FILL
  6
CONTINUOUS
 62
     7
 10
48.226820318334077
 20
25.259726726801969
 30
0.0
  0
VERTEX
  5
D85
  8
PATTERN_FILL
  6
CONTINUOUS
 62
     7
 10
49.287480490113893
 20
24.19906655502216
 30
0.0
  0
SEQEND
  5
D86
  8
PATTERN_FILL
  6
CONTINUOUS
 62
     7
  0
POLYLINE
  5
1CF
  8
PATTERN_FILL
  6
CONTINUOUS
 62
     7
 66
     1
 10
0.0
 20
0.0
 30
0.0
 70
     1
  0
VERTEX
  5
D87
  8
PATTERN_FILL
  6
CONTINUOUS
 62
     7
 10
50.348140661893702
 20
22.559726726801969
 30
0.0
  0
VERTEX
  5
D88
  8
PATTERN_FILL
  6
CONTINUOUS
 62
     7
 10
49.287480490113893
 20
23.620386898581788
 30
0.0
  0
VERTEX
  5
D89
  8
PATTERN_FILL
  6
CONTINUOUS
 62
     7
 10
48.226820318334077
 20
22.559726726801969
 30
0.0
  0
VERTEX
  5
D8A
  8
PATTERN_FILL
  6
CONTINUOUS
 62
     7
 10
49.287480490113893
 20
21.499066555022161
 30
0.0
  0
SEQEND
  5
D8B
  8
PATTERN_FILL
  6
CONTINUOUS
 62
     7
  0
POLYLINE
  5
1D6
  8
PATTERN_FILL
  6
CONTINUOUS
 62
     7
 66
     1
 10
0.0
 20
0.0
 30
0.0
 70
     1
  0
VERTEX
  5
D8C
  8
PATTERN_FILL
  6
CONTINUOUS
 62
     7
 10
53.048140661893711
 20
22.559726726801969
 30
0.0
  0
VERTEX
  5
D8D
  8
PATTERN_FILL
  6
CONTINUOUS
 62
     7
 10
51.987480490113889
 20
23.620386898581788
 30
0.0
  0
VERTEX
  5
D8E
  8
PATTERN_FILL
  6
CONTINUOUS
 62
     7
 10
50.926820318334073
 20
22.559726726801969
 30
0.0
  0
VERTEX
  5
D8F
  8
PATTERN_FILL
  6
CONTINUOUS
 62
     7
 10
51.987480490113889
 20
21.499066555022161
 30
0.0
  0
SEQEND
  5
D90
  8
PATTERN_FILL
  6
CONTINUOUS
 62
     7
  0
POLYLINE
  5
1DD
  8
PATTERN_FILL
  6
CONTINUOUS
 62
     7
 66
     1
 10
0.0
 20
0.0
 30
0.0
 70
     1
  0
VERTEX
  5
D91
  8
PATTERN_FILL
  6
CONTINUOUS
 62
     7
 10
55.7481406618937
 20
22.559726726801969
 30
0.0
  0
VERTEX
  5
D92
  8
PATTERN_FILL
  6
CONTINUOUS
 62
     7
 10
54.68748049011387
 20
23.620386898581788
 30
0.0
  0
VERTEX
  5
D93
  8
PATTERN_FILL
  6
CONTINUOUS
 62
     7
 10
53.626820318334033
 20
22.559726726801969
 30
0.0
  0
VERTEX
  5
D94
  8
PATTERN_FILL
  6
CONTINUOUS
 62
     7
 10
54.68748049011387
 20
21.499066555022161
 30
0.0
  0
SEQEND
  5
D95
  8
PATTERN_FILL
  6
CONTINUOUS
 62
     7
  0
POLYLINE
  5
1E4
  8
PATTERN_FILL
  6
CONTINUOUS
 62
     7
 66
     1
 10
0.0
 20
0.0
 30
0.0
  0
VERTEX
  5
D96
  8
PATTERN_FILL
  6
CONTINUOUS
 62
     7
 10
57.53849155283789
 20
23.469375835857772
 30
0.0
  0
VERTEX
  5
D97
  8
PATTERN_FILL
  6
CONTINUOUS
 62
     7
 10
57.387480490113859
 20
23.620386898581788
 30
0.0
  0
VERTEX
  5
D98
  8
PATTERN_FILL
  6
CONTINUOUS
 62
     7
 10
56.326820318334029
 20
22.559726726801969
 30
0.0
  0
VERTEX
  5
D99
  8
PATTERN_FILL
  6
CONTINUOUS
 62
     7
 10
57.1748366367991
 20
21.711710408336931
 30
0.0
  0
SEQEND
  5
D9A
  8
PATTERN_FILL
  6
CONTINUOUS
 62
     7
  0
POLYLINE
  5
1EB
  8
PATTERN_FILL
  6
CONTINUOUS
 62
     7
 66
     1
 10
0.0
 20
0.0
 30
0.0
 70
     1
  0
VERTEX
  5
D9B
  8
PATTERN_FILL
  6
CONTINUOUS
 62
     7
 10
50.348140661893702
 20
19.859726726801959
 30
0.0
  0
VERTEX
  5
D9C
  8
PATTERN_FILL
  6
CONTINUOUS
 62
     7
 10
49.287480490113893
 20
20.920386898581789
 30
0.0
  0
VERTEX
  5
D9D
  8
PATTERN_FILL
  6
CONTINUOUS
 62
     7
 10
48.226820318334077
 20
19.859726726801959
 30
0.0
  0
VERTEX
  5
D9E
  8
PATTERN_FILL
  6
CONTINUOUS
 62
     7
 10
49.287480490113893
 20
18.799066555022151
 30
0.0
  0
SEQEND
  5
D9F
  8
PATTERN_FILL
  6
CONTINUOUS
 62
     7
  0
POLYLINE
  5
1F2
  8
PATTERN_FILL
  6
CONTINUOUS
 62
     7
 66
     1
 10
0.0
 20
0.0
 30
0.0
 70
     1
  0
VERTEX
  5
DA0
  8
PATTERN_FILL
  6
CONTINUOUS
 62
     7
 10
53.048140661893711
 20
19.859726726801959
 30
0.0
  0
VERTEX
  5
DA1
  8
PATTERN_FILL
  6
CONTINUOUS
 62
     7
 10
51.987480490113889
 20
20.920386898581789
 30
0.0
  0
VERTEX
  5
DA2
  8
PATTERN_FILL
  6
CONTINUOUS
 62
     7
 10
50.926820318334073
 20
19.859726726801959
 30
0.0
  0
VERTEX
  5
DA3
  8
PATTERN_FILL
  6
CONTINUOUS
 62
     7
 10
51.987480490113889
 20
18.799066555022151
 30
0.0
  0
SEQEND
  5
DA4
  8
PATTERN_FILL
  6
CONTINUOUS
 62
     7
  0
POLYLINE
  5
1F9
  8
PATTERN_FILL
  6
CONTINUOUS
 62
     7
 66
     1
 10
0.0
 20
0.0
 30
0.0
 70
     1
  0
VERTEX
  5
DA5
  8
PATTERN_FILL
  6
CONTINUOUS
 62
     7
 10
55.7481406618937
 20
19.859726726801959
 30
0.0
  0
VERTEX
  5
DA6
  8
PATTERN_FILL
  6
CONTINUOUS
 62
     7
 10
54.68748049011387
 20
20.920386898581789
 30
0.0
  0
VERTEX
  5
DA7
  8
PATTERN_FILL
  6
CONTINUOUS
 62
     7
 10
53.626820318334033
 20
19.859726726801959
 30
0.0
  0
VERTEX
  5
DA8
  8
PATTERN_FILL
  6
CONTINUOUS
 62
     7
 10
54.68748049011387
 20
18.799066555022151
 30
0.0
  0
SEQEND
  5
DA9
  8
PATTERN_FILL
  6
CONTINUOUS
 62
     7
  0
POLYLINE
  5
200
  8
PATTERN_FILL
  6
CONTINUOUS
 62
     7
 66
     1
 10
0.0
 20
0.0
 30
0.0
  0
VERTEX
  5
DAA
  8
PATTERN_FILL
  6
CONTINUOUS
 62
     7
 10
56.912932107302581
 20
20.4458385157705
 30
0.0
  0
VERTEX
  5
DAB
  8
PATTERN_FILL
  6
CONTINUOUS
 62
     7
 10
56.326820318334029
 20
19.859726726801959
 30
0.0
  0
VERTEX
  5
DAC
  8
PATTERN_FILL
  6
CONTINUOUS
 62
     7
 10
56.711979493941939
 20
19.474567551194049
 30
0.0
  0
SEQEND
  5
DAD
  8
PATTERN_FILL
  6
CONTINUOUS
 62
     7
  0
POLYLINE
  5
206
  8
PATTERN_FILL
  6
CONTINUOUS
 62
     7
 66
     1
 10
0.0
 20
0.0
 30
0.0
 70
     1
  0
VERTEX
  5
DAE
  8
PATTERN_FILL
  6
CONTINUOUS
 62
     7
 10
53.048140661893711
 20
17.159726726801981
 30
0.0
  0
VERTEX
  5
DAF
  8
PATTERN_FILL
  6
CONTINUOUS
 62
     7
 10
51.987480490113889
 20
18.220386898581769
 30
0.0
  0
VERTEX
  5
DB0
  8
PATTERN_FILL
  6
CONTINUOUS
 62
     7
 10
50.926820318334073
 20
17.159726726801981
 30
0.0
  0
VERTEX
  5
DB1
  8
PATTERN_FILL
  6
CONTINUOUS
 62
     7
 10
51.987480490113889
 20
16.099066555022141
 30
0.0
  0
SEQEND
  5
DB2
  8
PATTERN_FILL
  6
CONTINUOUS
 62
     7
  0
POLYLINE
  5
20D
  8
PATTERN_FILL
  6
CONTINUOUS
 62
     7
 66
     1
 10
0.0
 20
0.0
 30
0.0
 70
     1
  0
VERTEX
  5
DB3
  8
PATTERN_FILL
  6
CONTINUOUS
 62
     7
 10
55.7481406618937
 20
17.159726726801981
 30
0.0
  0
VERTEX
  5
DB4
  8
PATTERN_FILL
  6
CONTINUOUS
 62
     7
 10
54.68748049011387
 20
18.220386898581769
 30
0.0
  0
VERTEX
  5
DB5
  8
PATTERN_FILL
  6
CONTINUOUS
 62
     7
 10
53.626820318334033
 20
17.159726726801981
 30
0.0
  0
VERTEX
  5
DB6
  8
PATTERN_FILL
  6
CONTINUOUS
 62
     7
 10
54.68748049011387
 20
16.099066555022141
 30
0.0
  0
SEQEND
  5
DB7
  8
PATTERN_FILL
  6
CONTINUOUS
 62
     7
  0
POLYLINE
  5
214
  8
PATTERN_FILL
  6
CONTINUOUS
 62
     7
 66
     1
 10
0.0
 20
0.0
 30
0.0
 70
     1
  0
VERTEX
  5
DB8
  8
PATTERN_FILL
  6
CONTINUOUS
 62
     7
 10
55.7481406618937
 20
14.459726726801961
 30
0.0
  0
VERTEX
  5
DB9
  8
PATTERN_FILL
  6
CONTINUOUS
 62
     7
 10
54.68748049011387
 20
15.52038689858176
 30
0.0
  0
VERTEX
  5
DBA
  8
PATTERN_FILL
  6
CONTINUOUS
 62
     7
 10
53.626820318334033
 20
14.45972672680193
 30
0.0
  0
VERTEX
  5
DBB
  8
PATTERN_FILL
  6
CONTINUOUS
 62
     7
 10
54.68748049011387
 20
13.399066555022131
 30
0.0
  0
SEQEND
  5
DBC
  8
PATTERN_FILL
  6
CONTINUOUS
 62
     7
  0
POLYLINE
  5
21B
  8
PATTERN_FILL
  6
CONTINUOUS
 62
     7
 66
     1
 10
0.0
 20
0.0
 30
0.0
  0
VERTEX
  5
DBD
  8
PATTERN_FILL
  6
CONTINUOUS
 62
     7
 10
55.053294878325637
 20
51.564880943233902
 30
0.0
  0
VERTEX
  5
DBE
  8
PATTERN_FILL
  6
CONTINUOUS
 62
     7
 10
55.7481406618937
 20
52.259726726801958
 30
0.0
  0
VERTEX
  5
DBF
  8
PATTERN_FILL
  6
CONTINUOUS
 62
     7
 10
55.336860459148483
 20
52.671006929547168
 30
0.0
  0
SEQEND
  5
DC0
  8
PATTERN_FILL
  6
CONTINUOUS
 62
     7
  0
POLYLINE
  5
221
  8
PATTERN_FILL
  6
CONTINUOUS
 62
     7
 66
     1
 10
0.0
 20
0.0
 30
0.0
 70
     1
  0
VERTEX
  5
DC1
  8
PATTERN_FILL
  6
CONTINUOUS
 62
     7
 10
58.448140661893682
 20
52.259726726801958
 30
0.0
  0
VERTEX
  5
DC2
  8
PATTERN_FILL
  6
CONTINUOUS
 62
     7
 10
57.387480490113859
 20
53.320386898581781
 30
0.0
  0
VERTEX
  5
DC3
  8
PATTERN_FILL
  6
CONTINUOUS
 62
     7
 10
56.326820318334029
 20
52.259726726801958
 30
0.0
  0
VERTEX
  5
DC4
  8
PATTERN_FILL
  6
CONTINUOUS
 62
     7
 10
57.387480490113859
 20
51.199066555022142
 30
0.0
  0
SEQEND
  5
DC5
  8
PATTERN_FILL
  6
CONTINUOUS
 62
     7
  0
POLYLINE
  5
228
  8
PATTERN_FILL
  6
CONTINUOUS
 62
     7
 66
     1
 10
0.0
 20
0.0
 30
0.0
  0
VERTEX
  5
DC6
  8
PATTERN_FILL
  6
CONTINUOUS
 62
     7
 10
59.430253082051358
 20
52.663159490519291
 30
0.0
  0
VERTEX
  5
DC7
  8
PATTERN_FILL
  6
CONTINUOUS
 62
     7
 10
59.026820318334032
 20
52.259726726801958
 30
0.0
  0
VERTEX
  5
DC8
  8
PATTERN_FILL
  6
CONTINUOUS
 62
     7
 10
60.08748049011384
 20
51.199066555022142
 30
0.0
  0
VERTEX
  5
DC9
  8
PATTERN_FILL
  6
CONTINUOUS
 62
     7
 10
60.638026535023698
 20
51.749612599932007
 30
0.0
  0
SEQEND
  5
DCA
  8
PATTERN_FILL
  6
CONTINUOUS
 62
     7
  0
POLYLINE
  5
22F
  8
PATTERN_FILL
  6
CONTINUOUS
 62
     7
 66
     1
 10
0.0
 20
0.0
 30
0.0
  0
VERTEX
  5
DCB
  8
PATTERN_FILL
  6
CONTINUOUS
 62
     7
 10
54.353073454977533
 20
48.833473590158462
 30
0.0
  0
VERTEX
  5
DCC
  8
PATTERN_FILL
  6
CONTINUOUS
 62
     7
 10
54.68748049011387
 20
48.499066555022146
 30
0.0
  0
VERTEX
  5
DCD
  8
PATTERN_FILL
  6
CONTINUOUS
 62
     7
 10
55.7481406618937
 20
49.559726726801962
 30
0.0
  0
VERTEX
  5
DCE
  8
PATTERN_FILL
  6
CONTINUOUS
 62
     7
 10
54.785927369873512
 20
50.521940018822143
 30
0.0
  0
SEQEND
  5
DCF
  8
PATTERN_FILL
  6
CONTINUOUS
 62
     7
  0
POLYLINE
  5
236
  8
PATTERN_FILL
  6
CONTINUOUS
 62
     7
 66
     1
 10
0.0
 20
0.0
 30
0.0
 70
     1
  0
VERTEX
  5
DD0
  8
PATTERN_FILL
  6
CONTINUOUS
 62
     7
 10
58.448140661893682
 20
49.559726726801962
 30
0.0
  0
VERTEX
  5
DD1
  8
PATTERN_FILL
  6
CONTINUOUS
 62
     7
 10
57.387480490113859
 20
50.620386898581778
 30
0.0
  0
VERTEX
  5
DD2
  8
PATTERN_FILL
  6
CONTINUOUS
 62
     7
 10
56.326820318334029
 20
49.559726726801962
 30
0.0
  0
VERTEX
  5
DD3
  8
PATTERN_FILL
  6
CONTINUOUS
 62
     7
 10
57.387480490113859
 20
48.499066555022146
 30
0.0
  0
SEQEND
  5
DD4
  8
PATTERN_FILL
  6
CONTINUOUS
 62
     7
  0
POLYLINE
  5
23D
  8
PATTERN_FILL
  6
CONTINUOUS
 62
     7
 66
     1
 10
0.0
 20
0.0
 30
0.0
 70
     1
  0
VERTEX
  5
DD5
  8
PATTERN_FILL
  6
CONTINUOUS
 62
     7
 10
61.148140661893649
 20
49.559726726801962
 30
0.0
  0
VERTEX
  5
DD6
  8
PATTERN_FILL
  6
CONTINUOUS
 62
     7
 10
60.08748049011384
 20
50.620386898581778
 30
0.0
  0
VERTEX
  5
DD7
  8
PATTERN_FILL
  6
CONTINUOUS
 62
     7
 10
59.026820318334032
 20
49.559726726801962
 30
0.0
  0
VERTEX
  5
DD8
  8
PATTERN_FILL
  6
CONTINUOUS
 62
     7
 10
60.08748049011384
 20
48.499066555022146
 30
0.0
  0
SEQEND
  5
DD9
  8
PATTERN_FILL
  6
CONTINUOUS
 62
     7
  0
POLYLINE
  5
244
  8
PATTERN_FILL
  6
CONTINUOUS
 62
     7
 66
     1
 10
0.0
 20
0.0
 30
0.0
  0
VERTEX
  5
DDA
  8
PATTERN_FILL
  6
CONTINUOUS
 62
     7
 10
62.504742357493143
 20
50.337648765961092
 30
0.0
  0
VERTEX
  5
DDB
  8
PATTERN_FILL
  6
CONTINUOUS
 62
     7
 10
61.726820318334028
 20
49.559726726801962
 30
0.0
  0
VERTEX
  5
DDC
  8
PATTERN_FILL
  6
CONTINUOUS
 62
     7
 10
62.72912235108474
 20
48.557424694051221
 30
0.0
  0
SEQEND
  5
DDD
  8
PATTERN_FILL
  6
CONTINUOUS
 62
     7
  0
POLYLINE
  5
24A
  8
PATTERN_FILL
  6
CONTINUOUS
 62
     7
 66
     1
 10
0.0
 20
0.0
 30
0.0
  0
VERTEX
  5
DDE
  8
PATTERN_FILL
  6
CONTINUOUS
 62
     7
 10
53.802140365702563
 20
46.684406679433451
 30
0.0
  0
VERTEX
  5
DDF
  8
PATTERN_FILL
  6
CONTINUOUS
 62
     7
 10
54.68748049011387
 20
45.799066555022137
 30
0.0
  0
VERTEX
  5
DE0
  8
PATTERN_FILL
  6
CONTINUOUS
 62
     7
 10
55.7481406618937
 20
46.859726726801959
 30
0.0
  0
VERTEX
  5
DE1
  8
PATTERN_FILL
  6
CONTINUOUS
 62
     7
 10
54.68748049011387
 20
47.920386898581782
 30
0.0
  0
VERTEX
  5
DE2
  8
PATTERN_FILL
  6
CONTINUOUS
 62
     7
 10
53.923018372302678
 20
47.15592478077059
 30
0.0
  0
SEQEND
  5
DE3
  8
PATTERN_FILL
  6
CONTINUOUS
 62
     7
  0
POLYLINE
  5
252
  8
PATTERN_FILL
  6
CONTINUOUS
 62
     7
 66
     1
 10
0.0
 20
0.0
 30
0.0
 70
     1
  0
VERTEX
  5
DE4
  8
PATTERN_FILL
  6
CONTINUOUS
 62
     7
 10
58.448140661893682
 20
46.859726726801959
 30
0.0
  0
VERTEX
  5
DE5
  8
PATTERN_FILL
  6
CONTINUOUS
 62
     7
 10
57.387480490113859
 20
47.920386898581782
 30
0.0
  0
VERTEX
  5
DE6
  8
PATTERN_FILL
  6
CONTINUOUS
 62
     7
 10
56.326820318334029
 20
46.859726726801959
 30
0.0
  0
VERTEX
  5
DE7
  8
PATTERN_FILL
  6
CONTINUOUS
 62
     7
 10
57.387480490113859
 20
45.799066555022137
 30
0.0
  0
SEQEND
  5
DE8
  8
PATTERN_FILL
  6
CONTINUOUS
 62
     7
  0
POLYLINE
  5
259
  8
PATTERN_FILL
  6
CONTINUOUS
 62
     7
 66
     1
 10
0.0
 20
0.0
 30
0.0
 70
     1
  0
VERTEX
  5
DE9
  8
PATTERN_FILL
  6
CONTINUOUS
 62
     7
 10
61.148140661893649
 20
46.859726726801959
 30
0.0
  0
VERTEX
  5
DEA
  8
PATTERN_FILL
  6
CONTINUOUS
 62
     7
 10
60.08748049011384
 20
47.920386898581782
 30
0.0
  0
VERTEX
  5
DEB
  8
PATTERN_FILL
  6
CONTINUOUS
 62
     7
 10
59.026820318334032
 20
46.859726726801959
 30
0.0
  0
VERTEX
  5
DEC
  8
PATTERN_FILL
  6
CONTINUOUS
 62
     7
 10
60.08748049011384
 20
45.799066555022137
 30
0.0
  0
SEQEND
  5
DED
  8
PATTERN_FILL
  6
CONTINUOUS
 62
     7
  0
POLYLINE
  5
260
  8
PATTERN_FILL
  6
CONTINUOUS
 62
     7
 66
     1
 10
0.0
 20
0.0
 30
0.0
  0
VERTEX
  5
DEE
  8
PATTERN_FILL
  6
CONTINUOUS
 62
     7
 10
62.547714715998183
 20
47.680621124466128
 30
0.0
  0
VERTEX
  5
DEF
  8
PATTERN_FILL
  6
CONTINUOUS
 62
     7
 10
61.726820318334028
 20
46.859726726801959
 30
0.0
  0
VERTEX
  5
DF0
  8
PATTERN_FILL
  6
CONTINUOUS
 62
     7
 10
62.266265208227608
 20
46.320281836908372
 30
0.0
  0
SEQEND
  5
DF1
  8
PATTERN_FILL
  6
CONTINUOUS
 62
     7
  0
POLYLINE
  5
266
  8
PATTERN_FILL
  6
CONTINUOUS
 62
     7
 66
     1
 10
0.0
 20
0.0
 30
0.0
  0
VERTEX
  5
DF2
  8
PATTERN_FILL
  6
CONTINUOUS
 62
     7
 10
13.197859634934391
 20
46.684406679433451
 30
0.0
  0
VERTEX
  5
DF3
  8
PATTERN_FILL
  6
CONTINUOUS
 62
     7
 10
12.312519510523069
 20
45.799066555022137
 30
0.0
  0
VERTEX
  5
DF4
  8
PATTERN_FILL
  6
CONTINUOUS
 62
     7
 10
11.2518593387432
 20
46.859726726801959
 30
0.0
  0
VERTEX
  5
DF5
  8
PATTERN_FILL
  6
CONTINUOUS
 62
     7
 10
12.312519510523069
 20
47.920386898581782
 30
0.0
  0
VERTEX
  5
DF6
  8
PATTERN_FILL
  6
CONTINUOUS
 62
     7
 10
13.076981628334259
 20
47.15592478077059
 30
0.0
  0
SEQEND
  5
DF7
  8
PATTERN_FILL
  6
CONTINUOUS
 62
     7
  0
POLYLINE
  5
26E
  8
PATTERN_FILL
  6
CONTINUOUS
 62
     7
 66
     1
 10
0.0
 20
0.0
 30
0.0
 70
     1
  0
VERTEX
  5
DF8
  8
PATTERN_FILL
  6
CONTINUOUS
 62
     7
 10
8.5518593387431423
 20
46.859726726801959
 30
0.0
  0
VERTEX
  5
DF9
  8
PATTERN_FILL
  6
CONTINUOUS
 62
     7
 10
9.6125195105229722
 20
47.920386898581782
 30
0.0
  0
VERTEX
  5
DFA
  8
PATTERN_FILL
  6
CONTINUOUS
 62
     7
 10
10.673179682302839
 20
46.859726726801959
 30
0.0
  0
VERTEX
  5
DFB
  8
PATTERN_FILL
  6
CONTINUOUS
 62
     7
 10
9.6125195105229722
 20
45.799066555022137
 30
0.0
  0
SEQEND
  5
DFC
  8
PATTERN_FILL
  6
CONTINUOUS
 62
     7
  0
POLYLINE
  5
275
  8
PATTERN_FILL
  6
CONTINUOUS
 62
     7
 66
     1
 10
0.0
 20
0.0
 30
0.0
 70
     1
  0
VERTEX
  5
DFD
  8
PATTERN_FILL
  6
CONTINUOUS
 62
     7
 10
5.8518593387430959
 20
46.859726726801959
 30
0.0
  0
VERTEX
  5
DFE
  8
PATTERN_FILL
  6
CONTINUOUS
 62
     7
 10
6.9125195105229267
 20
47.920386898581782
 30
0.0
  0
VERTEX
  5
DFF
  8
PATTERN_FILL
  6
CONTINUOUS
 62
     7
 10
7.9731796823027841
 20
46.859726726801959
 30
0.0
  0
VERTEX
  5
E00
  8
PATTERN_FILL
  6
CONTINUOUS
 62
     7
 10
6.9125195105229267
 20
45.799066555022137
 30
0.0
  0
SEQEND
  5
E01
  8
PATTERN_FILL
  6
CONTINUOUS
 62
     7
  0
POLYLINE
  5
27C
  8
PATTERN_FILL
  6
CONTINUOUS
 62
     7
 66
     1
 10
0.0
 20
0.0
 30
0.0
  0
VERTEX
  5
E02
  8
PATTERN_FILL
  6
CONTINUOUS
 62
     7
 10
4.4522852846385632
 20
47.680621124466128
 30
0.0
  0
VERTEX
  5
E03
  8
PATTERN_FILL
  6
CONTINUOUS
 62
     7
 10
5.2731796823027404
 20
46.859726726801959
 30
0.0
  0
VERTEX
  5
E04
  8
PATTERN_FILL
  6
CONTINUOUS
 62
     7
 10
4.7337347924091508
 20
46.320281836908372
 30
0.0
  0
SEQEND
  5
E05
  8
PATTERN_FILL
  6
CONTINUOUS
 62
     7
  0
POLYLINE
  5
282
  8
PATTERN_FILL
  6
CONTINUOUS
 62
     7
 66
     1
 10
0.0
 20
0.0
 30
0.0
 70
     1
  0
VERTEX
  5
E06
  8
PATTERN_FILL
  6
CONTINUOUS
 62
     7
 10
11.2518593387432
 20
44.159726726801971
 30
0.0
  0
VERTEX
  5
E07
  8
PATTERN_FILL
  6
CONTINUOUS
 62
     7
 10
12.312519510523069
 20
45.220386898581772
 30
0.0
  0
VERTEX
  5
E08
  8
PATTERN_FILL
  6
CONTINUOUS
 62
     7
 10
13.373179682302929
 20
44.159726726801964
 30
0.0
  0
VERTEX
  5
E09
  8
PATTERN_FILL
  6
CONTINUOUS
 62
     7
 10
12.312519510523069
 20
43.099066555022141
 30
0.0
  0
SEQEND
  5
E0A
  8
PATTERN_FILL
  6
CONTINUOUS
 62
     7
  0
POLYLINE
  5
289
  8
PATTERN_FILL
  6
CONTINUOUS
 62
     7
 66
     1
 10
0.0
 20
0.0
 30
0.0
 70
     1
  0
VERTEX
  5
E0B
  8
PATTERN_FILL
  6
CONTINUOUS
 62
     7
 10
8.5518593387431423
 20
44.159726726801971
 30
0.0
  0
VERTEX
  5
E0C
  8
PATTERN_FILL
  6
CONTINUOUS
 62
     7
 10
9.6125195105229722
 20
45.220386898581772
 30
0.0
  0
VERTEX
  5
E0D
  8
PATTERN_FILL
  6
CONTINUOUS
 62
     7
 10
10.673179682302839
 20
44.159726726801964
 30
0.0
  0
VERTEX
  5
E0E
  8
PATTERN_FILL
  6
CONTINUOUS
 62
     7
 10
9.6125195105229722
 20
43.099066555022141
 30
0.0
  0
SEQEND
  5
E0F
  8
PATTERN_FILL
  6
CONTINUOUS
 62
     7
  0
POLYLINE
  5
290
  8
PATTERN_FILL
  6
CONTINUOUS
 62
     7
 66
     1
 10
0.0
 20
0.0
 30
0.0
 70
     1
  0
VERTEX
  5
E10
  8
PATTERN_FILL
  6
CONTINUOUS
 62
     7
 10
5.8518593387430959
 20
44.159726726801971
 30
0.0
  0
VERTEX
  5
E11
  8
PATTERN_FILL
  6
CONTINUOUS
 62
     7
 10
6.9125195105229267
 20
45.220386898581772
 30
0.0
  0
VERTEX
  5
E12
  8
PATTERN_FILL
  6
CONTINUOUS
 62
     7
 10
7.9731796823027841
 20
44.159726726801964
 30
0.0
  0
VERTEX
  5
E13
  8
PATTERN_FILL
  6
CONTINUOUS
 62
     7
 10
6.9125195105229267
 20
43.099066555022141
 30
0.0
  0
SEQEND
  5
E14
  8
PATTERN_FILL
  6
CONTINUOUS
 62
     7
  0
POLYLINE
  5
297
  8
PATTERN_FILL
  6
CONTINUOUS
 62
     7
 66
     1
 10
0.0
 20
0.0
 30
0.0
  0
VERTEX
  5
E15
  8
PATTERN_FILL
  6
CONTINUOUS
 62
     7
 10
14.739060783164669
 20
40.672525282380569
 30
0.0
  0
VERTEX
  5
E16
  8
PATTERN_FILL
  6
CONTINUOUS
 62
     7
 10
13.951859338743271
 20
41.459726726801968
 30
0.0
  0
VERTEX
  5
E17
  8
PATTERN_FILL
  6
CONTINUOUS
 62
     7
 10
14.41780498786332
 20
41.925672375922019
 30
0.0
  0
SEQEND
  5
E18
  8
PATTERN_FILL
  6
CONTINUOUS
 62
     7
  0
POLYLINE
  5
29D
  8
PATTERN_FILL
  6
CONTINUOUS
 62
     7
 66
     1
 10
0.0
 20
0.0
 30
0.0
 70
     1
  0
VERTEX
  5
E19
  8
PATTERN_FILL
  6
CONTINUOUS
 62
     7
 10
11.2518593387432
 20
41.459726726801968
 30
0.0
  0
VERTEX
  5
E1A
  8
PATTERN_FILL
  6
CONTINUOUS
 62
     7
 10
12.312519510523069
 20
42.520386898581791
 30
0.0
  0
VERTEX
  5
E1B
  8
PATTERN_FILL
  6
CONTINUOUS
 62
     7
 10
13.373179682302929
 20
41.459726726801961
 30
0.0
  0
VERTEX
  5
E1C
  8
PATTERN_FILL
  6
CONTINUOUS
 62
     7
 10
12.312519510523069
 20
40.399066555022152
 30
0.0
  0
SEQEND
  5
E1D
  8
PATTERN_FILL
  6
CONTINUOUS
 62
     7
  0
POLYLINE
  5
2A4
  8
PATTERN_FILL
  6
CONTINUOUS
 62
     7
 66
     1
 10
0.0
 20
0.0
 30
0.0
 70
     1
  0
VERTEX
  5
E1E
  8
PATTERN_FILL
  6
CONTINUOUS
 62
     7
 10
8.5518593387431423
 20
41.459726726801968
 30
0.0
  0
VERTEX
  5
E1F
  8
PATTERN_FILL
  6
CONTINUOUS
 62
     7
 10
9.6125195105229722
 20
42.520386898581791
 30
0.0
  0
VERTEX
  5
E20
  8
PATTERN_FILL
  6
CONTINUOUS
 62
     7
 10
10.673179682302839
 20
41.459726726801961
 30
0.0
  0
VERTEX
  5
E21
  8
PATTERN_FILL
  6
CONTINUOUS
 62
     7
 10
9.6125195105229722
 20
40.399066555022152
 30
0.0
  0
SEQEND
  5
E22
  8
PATTERN_FILL
  6
CONTINUOUS
 62
     7
  0
POLYLINE
  5
2AB
  8
PATTERN_FILL
  6
CONTINUOUS
 62
     7
 66
     1
 10
0.0
 20
0.0
 30
0.0
 70
     1
  0
VERTEX
  5
E23
  8
PATTERN_FILL
  6
CONTINUOUS
 62
     7
 10
5.8518593387430959
 20
41.459726726801968
 30
0.0
  0
VERTEX
  5
E24
  8
PATTERN_FILL
  6
CONTINUOUS
 62
     7
 10
6.9125195105229267
 20
42.520386898581791
 30
0.0
  0
VERTEX
  5
E25
  8
PATTERN_FILL
  6
CONTINUOUS
 62
     7
 10
7.9731796823027841
 20
41.459726726801961
 30
0.0
  0
VERTEX
  5
E26
  8
PATTERN_FILL
  6
CONTINUOUS
 62
     7
 10
6.9125195105229267
 20
40.399066555022152
 30
0.0
  0
SEQEND
  5
E27
  8
PATTERN_FILL
  6
CONTINUOUS
 62
     7
  0
POLYLINE
  5
2B2
  8
PATTERN_FILL
  6
CONTINUOUS
 62
     7
 66
     1
 10
0.0
 20
0.0
 30
0.0
 70
     1
  0
VERTEX
  5
E28
  8
PATTERN_FILL
  6
CONTINUOUS
 62
     7
 10
16.651859338743311
 20
22.559726726801969
 30
0.0
  0
VERTEX
  5
E29
  8
PATTERN_FILL
  6
CONTINUOUS
 62
     7
 10
17.712519510523119
 20
23.620386898581788
 30
0.0
  0
VERTEX
  5
E2A
  8
PATTERN_FILL
  6
CONTINUOUS
 62
     7
 10
18.773179682302949
 20
22.559726726801969
 30
0.0
  0
VERTEX
  5
E2B
  8
PATTERN_FILL
  6
CONTINUOUS
 62
     7
 10
17.712519510523119
 20
21.499066555022161
 30
0.0
  0
SEQEND
  5
E2C
  8
PATTERN_FILL
  6
CONTINUOUS
 62
     7
  0
POLYLINE
  5
2B9
  8
PATTERN_FILL
  6
CONTINUOUS
 62
     7
 66
     1
 10
0.0
 20
0.0
 30
0.0
 70
     1
  0
VERTEX
  5
E2D
  8
PATTERN_FILL
  6
CONTINUOUS
 62
     7
 10
13.951859338743271
 20
22.559726726801969
 30
0.0
  0
VERTEX
  5
E2E
  8
PATTERN_FILL
  6
CONTINUOUS
 62
     7
 10
15.01251951052312
 20
23.620386898581788
 30
0.0
  0
VERTEX
  5
E2F
  8
PATTERN_FILL
  6
CONTINUOUS
 62
     7
 10
16.07317968230296
 20
22.559726726801969
 30
0.0
  0
VERTEX
  5
E30
  8
PATTERN_FILL
  6
CONTINUOUS
 62
     7
 10
15.01251951052312
 20
21.499066555022161
 30
0.0
  0
SEQEND
  5
E31
  8
PATTERN_FILL
  6
CONTINUOUS
 62
     7
  0
POLYLINE
  5
2C0
  8
PATTERN_FILL
  6
CONTINUOUS
 62
     7
 66
     1
 10
0.0
 20
0.0
 30
0.0
 70
     1
  0
VERTEX
  5
E32
  8
PATTERN_FILL
  6
CONTINUOUS
 62
     7
 10
11.2518593387432
 20
22.559726726801969
 30
0.0
  0
VERTEX
  5
E33
  8
PATTERN_FILL
  6
CONTINUOUS
 62
     7
 10
12.312519510523069
 20
23.620386898581788
 30
0.0
  0
VERTEX
  5
E34
  8
PATTERN_FILL
  6
CONTINUOUS
 62
     7
 10
13.373179682302929
 20
22.559726726801969
 30
0.0
  0
VERTEX
  5
E35
  8
PATTERN_FILL
  6
CONTINUOUS
 62
     7
 10
12.312519510523069
 20
21.499066555022161
 30
0.0
  0
SEQEND
  5
E36
  8
PATTERN_FILL
  6
CONTINUOUS
 62
     7
  0
POLYLINE
  5
2C7
  8
PATTERN_FILL
  6
CONTINUOUS
 62
     7
 66
     1
 10
0.0
 20
0.0
 30
0.0
  0
VERTEX
  5
E37
  8
PATTERN_FILL
  6
CONTINUOUS
 62
     7
 10
9.4615084477989466
 20
23.469375835857772
 30
0.0
  0
VERTEX
  5
E38
  8
PATTERN_FILL
  6
CONTINUOUS
 62
     7
 10
9.6125195105229722
 20
23.620386898581788
 30
0.0
  0
VERTEX
  5
E39
  8
PATTERN_FILL
  6
CONTINUOUS
 62
     7
 10
10.673179682302839
 20
22.559726726801969
 30
0.0
  0
VERTEX
  5
E3A
  8
PATTERN_FILL
  6
CONTINUOUS
 62
     7
 10
9.8251633638377438
 20
21.711710408336931
 30
0.0
  0
SEQEND
  5
E3B
  8
PATTERN_FILL
  6
CONTINUOUS
 62
     7
  0
POLYLINE
  5
2CE
  8
PATTERN_FILL
  6
CONTINUOUS
 62
     7
 66
     1
 10
0.0
 20
0.0
 30
0.0
 70
     1
  0
VERTEX
  5
E3C
  8
PATTERN_FILL
  6
CONTINUOUS
 62
     7
 10
16.651859338743311
 20
19.859726726801959
 30
0.0
  0
VERTEX
  5
E3D
  8
PATTERN_FILL
  6
CONTINUOUS
 62
     7
 10
17.712519510523119
 20
20.920386898581789
 30
0.0
  0
VERTEX
  5
E3E
  8
PATTERN_FILL
  6
CONTINUOUS
 62
     7
 10
18.773179682302949
 20
19.859726726801959
 30
0.0
  0
VERTEX
  5
E3F
  8
PATTERN_FILL
  6
CONTINUOUS
 62
     7
 10
17.712519510523119
 20
18.799066555022151
 30
0.0
  0
SEQEND
  5
E40
  8
PATTERN_FILL
  6
CONTINUOUS
 62
     7
  0
POLYLINE
  5
2D5
  8
PATTERN_FILL
  6
CONTINUOUS
 62
     7
 66
     1
 10
0.0
 20
0.0
 30
0.0
 70
     1
  0
VERTEX
  5
E41
  8
PATTERN_FILL
  6
CONTINUOUS
 62
     7
 10
13.951859338743271
 20
19.859726726801959
 30
0.0
  0
VERTEX
  5
E42
  8
PATTERN_FILL
  6
CONTINUOUS
 62
     7
 10
15.01251951052312
 20
20.920386898581789
 30
0.0
  0
VERTEX
  5
E43
  8
PATTERN_FILL
  6
CONTINUOUS
 62
     7
 10
16.07317968230296
 20
19.859726726801959
 30
0.0
  0
VERTEX
  5
E44
  8
PATTERN_FILL
  6
CONTINUOUS
 62
     7
 10
15.01251951052312
 20
18.799066555022151
 30
0.0
  0
SEQEND
  5
E45
  8
PATTERN_FILL
  6
CONTINUOUS
 62
     7
  0
POLYLINE
  5
2DC
  8
PATTERN_FILL
  6
CONTINUOUS
 62
     7
 66
     1
 10
0.0
 20
0.0
 30
0.0
 70
     1
  0
VERTEX
  5
E46
  8
PATTERN_FILL
  6
CONTINUOUS
 62
     7
 10
11.2518593387432
 20
19.859726726801959
 30
0.0
  0
VERTEX
  5
E47
  8
PATTERN_FILL
  6
CONTINUOUS
 62
     7
 10
12.312519510523069
 20
20.920386898581789
 30
0.0
  0
VERTEX
  5
E48
  8
PATTERN_FILL
  6
CONTINUOUS
 62
     7
 10
13.373179682302929
 20
19.859726726801959
 30
0.0
  0
VERTEX
  5
E49
  8
PATTERN_FILL
  6
CONTINUOUS
 62
     7
 10
12.312519510523069
 20
18.799066555022151
 30
0.0
  0
SEQEND
  5
E4A
  8
PATTERN_FILL
  6
CONTINUOUS
 62
     7
  0
POLYLINE
  5
2E3
  8
PATTERN_FILL
  6
CONTINUOUS
 62
     7
 66
     1
 10
0.0
 20
0.0
 30
0.0
  0
VERTEX
  5
E4B
  8
PATTERN_FILL
  6
CONTINUOUS
 62
     7
 10
10.087067893334259
 20
20.4458385157705
 30
0.0
  0
VERTEX
  5
E4C
  8
PATTERN_FILL
  6
CONTINUOUS
 62
     7
 10
10.673179682302839
 20
19.859726726801959
 30
0.0
  0
VERTEX
  5
E4D
  8
PATTERN_FILL
  6
CONTINUOUS
 62
     7
 10
10.28802050669492
 20
19.474567551194049
 30
0.0
  0
SEQEND
  5
E4E
  8
PATTERN_FILL
  6
CONTINUOUS
 62
     7
  0
POLYLINE
  5
2E9
  8
PATTERN_FILL
  6
CONTINUOUS
 62
     7
 66
     1
 10
0.0
 20
0.0
 30
0.0
 70
     1
  0
VERTEX
  5
E4F
  8
PATTERN_FILL
  6
CONTINUOUS
 62
     7
 10
13.951859338743271
 20
17.159726726801981
 30
0.0
  0
VERTEX
  5
E50
  8
PATTERN_FILL
  6
CONTINUOUS
 62
     7
 10
15.01251951052312
 20
18.220386898581769
 30
0.0
  0
VERTEX
  5
E51
  8
PATTERN_FILL
  6
CONTINUOUS
 62
     7
 10
16.07317968230296
 20
17.159726726801981
 30
0.0
  0
VERTEX
  5
E52
  8
PATTERN_FILL
  6
CONTINUOUS
 62
     7
 10
15.01251951052312
 20
16.099066555022141
 30
0.0
  0
SEQEND
  5
E53
  8
PATTERN_FILL
  6
CONTINUOUS
 62
     7
  0
POLYLINE
  5
2F0
  8
PATTERN_FILL
  6
CONTINUOUS
 62
     7
 66
     1
 10
0.0
 20
0.0
 30
0.0
 70
     1
  0
VERTEX
  5
E54
  8
PATTERN_FILL
  6
CONTINUOUS
 62
     7
 10
11.2518593387432
 20
17.159726726801981
 30
0.0
  0
VERTEX
  5
E55
  8
PATTERN_FILL
  6
CONTINUOUS
 62
     7
 10
12.312519510523069
 20
18.220386898581769
 30
0.0
  0
VERTEX
  5
E56
  8
PATTERN_FILL
  6
CONTINUOUS
 62
     7
 10
13.373179682302929
 20
17.159726726801981
 30
0.0
  0
VERTEX
  5
E57
  8
PATTERN_FILL
  6
CONTINUOUS
 62
     7
 10
12.312519510523069
 20
16.099066555022141
 30
0.0
  0
SEQEND
  5
E58
  8
PATTERN_FILL
  6
CONTINUOUS
 62
     7
  0
POLYLINE
  5
2F7
  8
PATTERN_FILL
  6
CONTINUOUS
 62
     7
 66
     1
 10
0.0
 20
0.0
 30
0.0
  0
VERTEX
  5
E59
  8
PATTERN_FILL
  6
CONTINUOUS
 62
     7
 10
11.31293701922762
 20
14.52080440728639
 30
0.0
  0
VERTEX
  5
E5A
  8
PATTERN_FILL
  6
CONTINUOUS
 62
     7
 10
12.312519510523069
 20
15.52038689858176
 30
0.0
  0
VERTEX
  5
E5B
  8
PATTERN_FILL
  6
CONTINUOUS
 62
     7
 10
13.373179682302929
 20
14.45972672680193
 30
0.0
  0
VERTEX
  5
E5C
  8
PATTERN_FILL
  6
CONTINUOUS
 62
     7
 10
12.312519510523069
 20
13.399066555022131
 30
0.0
  0
VERTEX
  5
E5D
  8
PATTERN_FILL
  6
CONTINUOUS
 62
     7
 10
11.344803635132511
 20
14.36678243041265
 30
0.0
  0
SEQEND
  5
E5E
  8
PATTERN_FILL
  6
CONTINUOUS
 62
     7
  0
POLYLINE
  5
2FF
  8
PATTERN_FILL
  6
CONTINUOUS
 62
     7
 66
     1
 10
0.0
 20
0.0
 30
0.0
  0
VERTEX
  5
E5F
  8
PATTERN_FILL
  6
CONTINUOUS
 62
     7
 10
11.9467051223113
 20
51.564880943233902
 30
0.0
  0
VERTEX
  5
E60
  8
PATTERN_FILL
  6
CONTINUOUS
 62
     7
 10
11.2518593387432
 20
52.259726726801958
 30
0.0
  0
VERTEX
  5
E61
  8
PATTERN_FILL
  6
CONTINUOUS
 62
     7
 10
11.66313954148843
 20
52.671006929547168
 30
0.0
  0
SEQEND
  5
E62
  8
PATTERN_FILL
  6
CONTINUOUS
 62
     7
  0
POLYLINE
  5
305
  8
PATTERN_FILL
  6
CONTINUOUS
 62
     7
 66
     1
 10
0.0
 20
0.0
 30
0.0
 70
     1
  0
VERTEX
  5
E63
  8
PATTERN_FILL
  6
CONTINUOUS
 62
     7
 10
8.5518593387431423
 20
52.259726726801958
 30
0.0
  0
VERTEX
  5
E64
  8
PATTERN_FILL
  6
CONTINUOUS
 62
     7
 10
9.6125195105229722
 20
53.320386898581781
 30
0.0
  0
VERTEX
  5
E65
  8
PATTERN_FILL
  6
CONTINUOUS
 62
     7
 10
10.673179682302839
 20
52.259726726801958
 30
0.0
  0
VERTEX
  5
E66
  8
PATTERN_FILL
  6
CONTINUOUS
 62
     7
 10
9.6125195105229722
 20
51.199066555022142
 30
0.0
  0
SEQEND
  5
E67
  8
PATTERN_FILL
  6
CONTINUOUS
 62
     7
  0
POLYLINE
  5
30C
  8
PATTERN_FILL
  6
CONTINUOUS
 62
     7
 66
     1
 10
0.0
 20
0.0
 30
0.0
  0
VERTEX
  5
E68
  8
PATTERN_FILL
  6
CONTINUOUS
 62
     7
 10
7.5697469185854223
 20
52.663159490519291
 30
0.0
  0
VERTEX
  5
E69
  8
PATTERN_FILL
  6
CONTINUOUS
 62
     7
 10
7.9731796823027841
 20
52.259726726801958
 30
0.0
  0
VERTEX
  5
E6A
  8
PATTERN_FILL
  6
CONTINUOUS
 62
     7
 10
6.9125195105229267
 20
51.199066555022142
 30
0.0
  0
VERTEX
  5
E6B
  8
PATTERN_FILL
  6
CONTINUOUS
 62
     7
 10
6.361973465613076
 20
51.749612599932007
 30
0.0
  0
SEQEND
  5
E6C
  8
PATTERN_FILL
  6
CONTINUOUS
 62
     7
  0
POLYLINE
  5
313
  8
PATTERN_FILL
  6
CONTINUOUS
 62
     7
 66
     1
 10
0.0
 20
0.0
 30
0.0
  0
VERTEX
  5
E6D
  8
PATTERN_FILL
  6
CONTINUOUS
 62
     7
 10
12.64692654565942
 20
48.833473590158462
 30
0.0
  0
VERTEX
  5
E6E
  8
PATTERN_FILL
  6
CONTINUOUS
 62
     7
 10
12.312519510523069
 20
48.499066555022146
 30
0.0
  0
VERTEX
  5
E6F
  8
PATTERN_FILL
  6
CONTINUOUS
 62
     7
 10
11.2518593387432
 20
49.559726726801962
 30
0.0
  0
VERTEX
  5
E70
  8
PATTERN_FILL
  6
CONTINUOUS
 62
     7
 10
12.21407263076342
 20
50.521940018822143
 30
0.0
  0
SEQEND
  5
E71
  8
PATTERN_FILL
  6
CONTINUOUS
 62
     7
  0
POLYLINE
  5
31A
  8
PATTERN_FILL
  6
CONTINUOUS
 62
     7
 66
     1
 10
0.0
 20
0.0
 30
0.0
 70
     1
  0
VERTEX
  5
E72
  8
PATTERN_FILL
  6
CONTINUOUS
 62
     7
 10
8.5518593387431423
 20
49.559726726801962
 30
0.0
  0
VERTEX
  5
E73
  8
PATTERN_FILL
  6
CONTINUOUS
 62
     7
 10
9.6125195105229722
 20
50.620386898581778
 30
0.0
  0
VERTEX
  5
E74
  8
PATTERN_FILL
  6
CONTINUOUS
 62
     7
 10
10.673179682302839
 20
49.559726726801962
 30
0.0
  0
VERTEX
  5
E75
  8
PATTERN_FILL
  6
CONTINUOUS
 62
     7
 10
9.6125195105229722
 20
48.499066555022146
 30
0.0
  0
SEQEND
  5
E76
  8
PATTERN_FILL
  6
CONTINUOUS
 62
     7
  0
POLYLINE
  5
321
  8
PATTERN_FILL
  6
CONTINUOUS
 62
     7
 66
     1
 10
0.0
 20
0.0
 30
0.0
 70
     1
  0
VERTEX
  5
E77
  8
PATTERN_FILL
  6
CONTINUOUS
 62
     7
 10
5.8518593387430959
 20
49.559726726801962
 30
0.0
  0
VERTEX
  5
E78
  8
PATTERN_FILL
  6
CONTINUOUS
 62
     7
 10
6.9125195105229267
 20
50.620386898581778
 30
0.0
  0
VERTEX
  5
E79
  8
PATTERN_FILL
  6
CONTINUOUS
 62
     7
 10
7.9731796823027841
 20
49.559726726801962
 30
0.0
  0
VERTEX
  5
E7A
  8
PATTERN_FILL
  6
CONTINUOUS
 62
     7
 10
6.9125195105229267
 20
48.499066555022146
 30
0.0
  0
SEQEND
  5
E7B
  8
PATTERN_FILL
  6
CONTINUOUS
 62
     7
  0
POLYLINE
  5
328
  8
PATTERN_FILL
  6
CONTINUOUS
 62
     7
 66
     1
 10
0.0
 20
0.0
 30
0.0
  0
VERTEX
  5
E7C
  8
PATTERN_FILL
  6
CONTINUOUS
 62
     7
 10
4.4952576431436011
 20
50.337648765961092
 30
0.0
  0
VERTEX
  5
E7D
  8
PATTERN_FILL
  6
CONTINUOUS
 62
     7
 10
5.2731796823027404
 20
49.559726726801962
 30
0.0
  0
VERTEX
  5
E7E
  8
PATTERN_FILL
  6
CONTINUOUS
 62
     7
 10
4.2708776495519913
 20
48.557424694051221
 30
0.0
  0
SEQEND
  5
E7F
  8
PATTERN_FILL
  6
CONTINUOUS
 62
     7
  0
POLYLINE
  5
32E
  8
PATTERN_FILL
  6
CONTINUOUS
 62
     7
 66
     1
 10
0.0
 20
0.0
 30
0.0
 70
     1
  0
VERTEX
  5
E80
  8
PATTERN_FILL
  6
CONTINUOUS
 62
     7
 10
100.1738968881546
 20
44.159726726801971
 30
0.0
  0
VERTEX
  5
E81
  8
PATTERN_FILL
  6
CONTINUOUS
 62
     7
 10
99.113236716374743
 20
45.220386898581772
 30
0.0
  0
VERTEX
  5
E82
  8
PATTERN_FILL
  6
CONTINUOUS
 62
     7
 10
98.052576544594956
 20
44.159726726801964
 30
0.0
  0
VERTEX
  5
E83
  8
PATTERN_FILL
  6
CONTINUOUS
 62
     7
 10
99.113236716374743
 20
43.099066555022141
 30
0.0
  0
SEQEND
  5
E84
  8
PATTERN_FILL
  6
CONTINUOUS
 62
     7
  0
POLYLINE
  5
335
  8
PATTERN_FILL
  6
CONTINUOUS
 62
     7
 66
     1
 10
0.0
 20
0.0
 30
0.0
 70
     1
  0
VERTEX
  5
E85
  8
PATTERN_FILL
  6
CONTINUOUS
 62
     7
 10
102.8738968881546
 20
44.159726726801971
 30
0.0
  0
VERTEX
  5
E86
  8
PATTERN_FILL
  6
CONTINUOUS
 62
     7
 10
101.8132367163747
 20
45.220386898581772
 30
0.0
  0
VERTEX
  5
E87
  8
PATTERN_FILL
  6
CONTINUOUS
 62
     7
 10
100.7525765445949
 20
44.159726726801964
 30
0.0
  0
VERTEX
  5
E88
  8
PATTERN_FILL
  6
CONTINUOUS
 62
     7
 10
101.8132367163747
 20
43.099066555022141
 30
0.0
  0
SEQEND
  5
E89
  8
PATTERN_FILL
  6
CONTINUOUS
 62
     7
  0
POLYLINE
  5
33C
  8
PATTERN_FILL
  6
CONTINUOUS
 62
     7
 66
     1
 10
0.0
 20
0.0
 30
0.0
 70
     1
  0
VERTEX
  5
E8A
  8
PATTERN_FILL
  6
CONTINUOUS
 62
     7
 10
100.1738968881546
 20
41.459726726801968
 30
0.0
  0
VERTEX
  5
E8B
  8
PATTERN_FILL
  6
CONTINUOUS
 62
     7
 10
99.113236716374743
 20
42.520386898581791
 30
0.0
  0
VERTEX
  5
E8C
  8
PATTERN_FILL
  6
CONTINUOUS
 62
     7
 10
98.052576544594956
 20
41.459726726801961
 30
0.0
  0
VERTEX
  5
E8D
  8
PATTERN_FILL
  6
CONTINUOUS
 62
     7
 10
99.113236716374743
 20
40.399066555022152
 30
0.0
  0
SEQEND
  5
E8E
  8
PATTERN_FILL
  6
CONTINUOUS
 62
     7
  0
POLYLINE
  5
343
  8
PATTERN_FILL
  6
CONTINUOUS
 62
     7
 66
     1
 10
0.0
 20
0.0
 30
0.0
 70
     1
  0
VERTEX
  5
E8F
  8
PATTERN_FILL
  6
CONTINUOUS
 62
     7
 10
102.8738968881546
 20
41.459726726801968
 30
0.0
  0
VERTEX
  5
E90
  8
PATTERN_FILL
  6
CONTINUOUS
 62
     7
 10
101.8132367163747
 20
42.520386898581791
 30
0.0
  0
VERTEX
  5
E91
  8
PATTERN_FILL
  6
CONTINUOUS
 62
     7
 10
100.7525765445949
 20
41.459726726801961
 30
0.0
  0
VERTEX
  5
E92
  8
PATTERN_FILL
  6
CONTINUOUS
 62
     7
 10
101.8132367163747
 20
40.399066555022152
 30
0.0
  0
SEQEND
  5
E93
  8
PATTERN_FILL
  6
CONTINUOUS
 62
     7
  0
POLYLINE
  5
34A
  8
PATTERN_FILL
  6
CONTINUOUS
 62
     7
 66
     1
 10
0.0
 20
0.0
 30
0.0
 70
     1
  0
VERTEX
  5
E94
  8
PATTERN_FILL
  6
CONTINUOUS
 62
     7
 10
100.1738968881546
 20
38.759726726801972
 30
0.0
  0
VERTEX
  5
E95
  8
PATTERN_FILL
  6
CONTINUOUS
 62
     7
 10
99.113236716374743
 20
39.820386898581781
 30
0.0
  0
VERTEX
  5
E96
  8
PATTERN_FILL
  6
CONTINUOUS
 62
     7
 10
98.052576544594956
 20
38.759726726801972
 30
0.0
  0
VERTEX
  5
E97
  8
PATTERN_FILL
  6
CONTINUOUS
 62
     7
 10
99.113236716374743
 20
37.699066555022164
 30
0.0
  0
SEQEND
  5
E98
  8
PATTERN_FILL
  6
CONTINUOUS
 62
     7
  0
POLYLINE
  5
351
  8
PATTERN_FILL
  6
CONTINUOUS
 62
     7
 66
     1
 10
0.0
 20
0.0
 30
0.0
 70
     1
  0
VERTEX
  5
E99
  8
PATTERN_FILL
  6
CONTINUOUS
 62
     7
 10
102.8738968881546
 20
38.759726726801972
 30
0.0
  0
VERTEX
  5
E9A
  8
PATTERN_FILL
  6
CONTINUOUS
 62
     7
 10
101.8132367163747
 20
39.820386898581781
 30
0.0
  0
VERTEX
  5
E9B
  8
PATTERN_FILL
  6
CONTINUOUS
 62
     7
 10
100.7525765445949
 20
38.759726726801972
 30
0.0
  0
VERTEX
  5
E9C
  8
PATTERN_FILL
  6
CONTINUOUS
 62
     7
 10
101.8132367163747
 20
37.699066555022164
 30
0.0
  0
SEQEND
  5
E9D
  8
PATTERN_FILL
  6
CONTINUOUS
 62
     7
  0
POLYLINE
  5
358
  8
PATTERN_FILL
  6
CONTINUOUS
 62
     7
 66
     1
 10
0.0
 20
0.0
 30
0.0
 70
     1
  0
VERTEX
  5
E9E
  8
PATTERN_FILL
  6
CONTINUOUS
 62
     7
 10
100.1738968881546
 20
36.059726726801991
 30
0.0
  0
VERTEX
  5
E9F
  8
PATTERN_FILL
  6
CONTINUOUS
 62
     7
 10
99.113236716374743
 20
37.120386898581792
 30
0.0
  0
VERTEX
  5
EA0
  8
PATTERN_FILL
  6
CONTINUOUS
 62
     7
 10
98.052576544594956
 20
36.059726726801969
 30
0.0
  0
VERTEX
  5
EA1
  8
PATTERN_FILL
  6
CONTINUOUS
 62
     7
 10
99.113236716374743
 20
34.999066555022161
 30
0.0
  0
SEQEND
  5
EA2
  8
PATTERN_FILL
  6
CONTINUOUS
 62
     7
  0
POLYLINE
  5
35F
  8
PATTERN_FILL
  6
CONTINUOUS
 62
     7
 66
     1
 10
0.0
 20
0.0
 30
0.0
 70
     1
  0
VERTEX
  5
EA3
  8
PATTERN_FILL
  6
CONTINUOUS
 62
     7
 10
102.8738968881546
 20
36.059726726801991
 30
0.0
  0
VERTEX
  5
EA4
  8
PATTERN_FILL
  6
CONTINUOUS
 62
     7
 10
101.8132367163747
 20
37.120386898581792
 30
0.0
  0
VERTEX
  5
EA5
  8
PATTERN_FILL
  6
CONTINUOUS
 62
     7
 10
100.7525765445949
 20
36.059726726801969
 30
0.0
  0
VERTEX
  5
EA6
  8
PATTERN_FILL
  6
CONTINUOUS
 62
     7
 10
101.8132367163747
 20
34.999066555022161
 30
0.0
  0
SEQEND
  5
EA7
  8
PATTERN_FILL
  6
CONTINUOUS
 62
     7
  0
POLYLINE
  5
366
  8
PATTERN_FILL
  6
CONTINUOUS
 62
     7
 66
     1
 10
0.0
 20
0.0
 30
0.0
 70
     1
  0
VERTEX
  5
EA8
  8
PATTERN_FILL
  6
CONTINUOUS
 62
     7
 10
100.1738968881546
 20
33.359726726801981
 30
0.0
  0
VERTEX
  5
EA9
  8
PATTERN_FILL
  6
CONTINUOUS
 62
     7
 10
99.113236716374743
 20
34.420386898581803
 30
0.0
  0
VERTEX
  5
EAA
  8
PATTERN_FILL
  6
CONTINUOUS
 62
     7
 10
98.052576544594956
 20
33.359726726801973
 30
0.0
  0
VERTEX
  5
EAB
  8
PATTERN_FILL
  6
CONTINUOUS
 62
     7
 10
99.113236716374743
 20
32.299066555022151
 30
0.0
  0
SEQEND
  5
EAC
  8
PATTERN_FILL
  6
CONTINUOUS
 62
     7
  0
POLYLINE
  5
36D
  8
PATTERN_FILL
  6
CONTINUOUS
 62
     7
 66
     1
 10
0.0
 20
0.0
 30
0.0
 70
     1
  0
VERTEX
  5
EAD
  8
PATTERN_FILL
  6
CONTINUOUS
 62
     7
 10
102.8738968881546
 20
33.359726726801981
 30
0.0
  0
VERTEX
  5
EAE
  8
PATTERN_FILL
  6
CONTINUOUS
 62
     7
 10
101.8132367163747
 20
34.420386898581803
 30
0.0
  0
VERTEX
  5
EAF
  8
PATTERN_FILL
  6
CONTINUOUS
 62
     7
 10
100.7525765445949
 20
33.359726726801973
 30
0.0
  0
VERTEX
  5
EB0
  8
PATTERN_FILL
  6
CONTINUOUS
 62
     7
 10
101.8132367163747
 20
32.299066555022151
 30
0.0
  0
SEQEND
  5
EB1
  8
PATTERN_FILL
  6
CONTINUOUS
 62
     7
  0
POLYLINE
  5
374
  8
PATTERN_FILL
  6
CONTINUOUS
 62
     7
 66
     1
 10
0.0
 20
0.0
 30
0.0
 70
     1
  0
VERTEX
  5
EB2
  8
PATTERN_FILL
  6
CONTINUOUS
 62
     7
 10
100.1738968881546
 20
30.659726726801981
 30
0.0
  0
VERTEX
  5
EB3
  8
PATTERN_FILL
  6
CONTINUOUS
 62
     7
 10
99.113236716374743
 20
31.7203868985818
 30
0.0
  0
VERTEX
  5
EB4
  8
PATTERN_FILL
  6
CONTINUOUS
 62
     7
 10
98.052576544594956
 20
30.659726726801981
 30
0.0
  0
VERTEX
  5
EB5
  8
PATTERN_FILL
  6
CONTINUOUS
 62
     7
 10
99.113236716374743
 20
29.599066555022159
 30
0.0
  0
SEQEND
  5
EB6
  8
PATTERN_FILL
  6
CONTINUOUS
 62
     7
  0
POLYLINE
  5
37B
  8
PATTERN_FILL
  6
CONTINUOUS
 62
     7
 66
     1
 10
0.0
 20
0.0
 30
0.0
 70
     1
  0
VERTEX
  5
EB7
  8
PATTERN_FILL
  6
CONTINUOUS
 62
     7
 10
102.8738968881546
 20
30.659726726801981
 30
0.0
  0
VERTEX
  5
EB8
  8
PATTERN_FILL
  6
CONTINUOUS
 62
     7
 10
101.8132367163747
 20
31.7203868985818
 30
0.0
  0
VERTEX
  5
EB9
  8
PATTERN_FILL
  6
CONTINUOUS
 62
     7
 10
100.7525765445949
 20
30.659726726801981
 30
0.0
  0
VERTEX
  5
EBA
  8
PATTERN_FILL
  6
CONTINUOUS
 62
     7
 10
101.8132367163747
 20
29.599066555022159
 30
0.0
  0
SEQEND
  5
EBB
  8
PATTERN_FILL
  6
CONTINUOUS
 62
     7
  0
POLYLINE
  5
382
  8
PATTERN_FILL
  6
CONTINUOUS
 62
     7
 66
     1
 10
0.0
 20
0.0
 30
0.0
 70
     1
  0
VERTEX
  5
EBC
  8
PATTERN_FILL
  6
CONTINUOUS
 62
     7
 10
100.1738968881546
 20
27.959726726801971
 30
0.0
  0
VERTEX
  5
EBD
  8
PATTERN_FILL
  6
CONTINUOUS
 62
     7
 10
99.113236716374743
 20
29.020386898581791
 30
0.0
  0
VERTEX
  5
EBE
  8
PATTERN_FILL
  6
CONTINUOUS
 62
     7
 10
98.052576544594956
 20
27.959726726801971
 30
0.0
  0
VERTEX
  5
EBF
  8
PATTERN_FILL
  6
CONTINUOUS
 62
     7
 10
99.113236716374743
 20
26.899066555022159
 30
0.0
  0
SEQEND
  5
EC0
  8
PATTERN_FILL
  6
CONTINUOUS
 62
     7
  0
POLYLINE
  5
389
  8
PATTERN_FILL
  6
CONTINUOUS
 62
     7
 66
     1
 10
0.0
 20
0.0
 30
0.0
 70
     1
  0
VERTEX
  5
EC1
  8
PATTERN_FILL
  6
CONTINUOUS
 62
     7
 10
102.8738968881546
 20
27.959726726801971
 30
0.0
  0
VERTEX
  5
EC2
  8
PATTERN_FILL
  6
CONTINUOUS
 62
     7
 10
101.8132367163747
 20
29.020386898581791
 30
0.0
  0
VERTEX
  5
EC3
  8
PATTERN_FILL
  6
CONTINUOUS
 62
     7
 10
100.7525765445949
 20
27.959726726801971
 30
0.0
  0
VERTEX
  5
EC4
  8
PATTERN_FILL
  6
CONTINUOUS
 62
     7
 10
101.8132367163747
 20
26.899066555022159
 30
0.0
  0
SEQEND
  5
EC5
  8
PATTERN_FILL
  6
CONTINUOUS
 62
     7
  0
POLYLINE
  5
390
  8
PATTERN_FILL
  6
CONTINUOUS
 62
     7
 66
     1
 10
0.0
 20
0.0
 30
0.0
 70
     1
  0
VERTEX
  5
EC6
  8
PATTERN_FILL
  6
CONTINUOUS
 62
     7
 10
100.1738968881546
 20
25.259726726801969
 30
0.0
  0
VERTEX
  5
EC7
  8
PATTERN_FILL
  6
CONTINUOUS
 62
     7
 10
99.113236716374743
 20
26.320386898581798
 30
0.0
  0
VERTEX
  5
EC8
  8
PATTERN_FILL
  6
CONTINUOUS
 62
     7
 10
98.052576544594956
 20
25.259726726801969
 30
0.0
  0
VERTEX
  5
EC9
  8
PATTERN_FILL
  6
CONTINUOUS
 62
     7
 10
99.113236716374743
 20
24.19906655502216
 30
0.0
  0
SEQEND
  5
ECA
  8
PATTERN_FILL
  6
CONTINUOUS
 62
     7
  0
POLYLINE
  5
397
  8
PATTERN_FILL
  6
CONTINUOUS
 62
     7
 66
     1
 10
0.0
 20
0.0
 30
0.0
 70
     1
  0
VERTEX
  5
ECB
  8
PATTERN_FILL
  6
CONTINUOUS
 62
     7
 10
100.1738968881546
 20
22.559726726801969
 30
0.0
  0
VERTEX
  5
ECC
  8
PATTERN_FILL
  6
CONTINUOUS
 62
     7
 10
99.113236716374743
 20
23.620386898581788
 30
0.0
  0
VERTEX
  5
ECD
  8
PATTERN_FILL
  6
CONTINUOUS
 62
     7
 10
98.052576544594956
 20
22.559726726801969
 30
0.0
  0
VERTEX
  5
ECE
  8
PATTERN_FILL
  6
CONTINUOUS
 62
     7
 10
99.113236716374743
 20
21.499066555022161
 30
0.0
  0
SEQEND
  5
ECF
  8
PATTERN_FILL
  6
CONTINUOUS
 62
     7
  0
POLYLINE
  5
39E
  8
PATTERN_FILL
  6
CONTINUOUS
 62
     7
 66
     1
 10
0.0
 20
0.0
 30
0.0
 70
     1
  0
VERTEX
  5
ED0
  8
PATTERN_FILL
  6
CONTINUOUS
 62
     7
 10
100.1738968881546
 20
19.859726726801959
 30
0.0
  0
VERTEX
  5
ED1
  8
PATTERN_FILL
  6
CONTINUOUS
 62
     7
 10
99.113236716374743
 20
20.920386898581789
 30
0.0
  0
VERTEX
  5
ED2
  8
PATTERN_FILL
  6
CONTINUOUS
 62
     7
 10
98.052576544594956
 20
19.859726726801959
 30
0.0
  0
VERTEX
  5
ED3
  8
PATTERN_FILL
  6
CONTINUOUS
 62
     7
 10
99.113236716374743
 20
18.799066555022151
 30
0.0
  0
SEQEND
  5
ED4
  8
PATTERN_FILL
  6
CONTINUOUS
 62
     7
  0
POLYLINE
  5
3A5
  8
PATTERN_FILL
  6
CONTINUOUS
 62
     7
 66
     1
 10
0.0
 20
0.0
 30
0.0
  0
VERTEX
  5
ED5
  8
PATTERN_FILL
  6
CONTINUOUS
 62
     7
 10
99.182579560784845
 20
16.16840939943225
 30
0.0
  0
VERTEX
  5
ED6
  8
PATTERN_FILL
  6
CONTINUOUS
 62
     7
 10
100.1738968881546
 20
17.159726726801981
 30
0.0
  0
VERTEX
  5
ED7
  8
PATTERN_FILL
  6
CONTINUOUS
 62
     7
 10
99.113236716374743
 20
18.220386898581769
 30
0.0
  0
VERTEX
  5
ED8
  8
PATTERN_FILL
  6
CONTINUOUS
 62
     7
 10
98.052576544594956
 20
17.159726726801981
 30
0.0
  0
VERTEX
  5
ED9
  8
PATTERN_FILL
  6
CONTINUOUS
 62
     7
 10
99.010985403431079
 20
16.201317867965852
 30
0.0
  0
SEQEND
  5
EDA
  8
PATTERN_FILL
  6
CONTINUOUS
 62
     7
  0
POLYLINE
  5
3AD
  8
PATTERN_FILL
  6
CONTINUOUS
 62
     7
 66
     1
 10
0.0
 20
0.0
 30
0.0
  0
VERTEX
  5
EDB
  8
PATTERN_FILL
  6
CONTINUOUS
 62
     7
 10
101.2995477151089
 20
50.106697897315982
 30
0.0
  0
VERTEX
  5
EDC
  8
PATTERN_FILL
  6
CONTINUOUS
 62
     7
 10
100.7525765445949
 20
49.559726726801962
 30
0.0
  0
VERTEX
  5
EDD
  8
PATTERN_FILL
  6
CONTINUOUS
 62
     7
 10
101.8132367163747
 20
48.499066555022146
 30
0.0
  0
VERTEX
  5
EDE
  8
PATTERN_FILL
  6
CONTINUOUS
 62
     7
 10
102.8079933314348
 20
49.49382317008218
 30
0.0
  0
SEQEND
  5
EDF
  8
PATTERN_FILL
  6
CONTINUOUS
 62
     7
  0
POLYLINE
  5
3B4
  8
PATTERN_FILL
  6
CONTINUOUS
 62
     7
 66
     1
 10
0.0
 20
0.0
 30
0.0
 70
     1
  0
VERTEX
  5
EE0
  8
PATTERN_FILL
  6
CONTINUOUS
 62
     7
 10
102.8738968881546
 20
46.859726726801959
 30
0.0
  0
VERTEX
  5
EE1
  8
PATTERN_FILL
  6
CONTINUOUS
 62
     7
 10
101.8132367163747
 20
47.920386898581782
 30
0.0
  0
VERTEX
  5
EE2
  8
PATTERN_FILL
  6
CONTINUOUS
 62
     7
 10
100.7525765445949
 20
46.859726726801959
 30
0.0
  0
VERTEX
  5
EE3
  8
PATTERN_FILL
  6
CONTINUOUS
 62
     7
 10
101.8132367163747
 20
45.799066555022137
 30
0.0
  0
SEQEND
  5
EE4
  8
PATTERN_FILL
  6
CONTINUOUS
 62
     7
  0
POLYLINE
  5
3BB
  8
PATTERN_FILL
  6
CONTINUOUS
 62
     7
 66
     1
 10
0.0
 20
0.0
 30
0.0
  0
VERTEX
  5
EE5
  8
PATTERN_FILL
  6
CONTINUOUS
 62
     7
 10
104.90000000000001
 20
44.833623614956529
 30
0.0
  0
VERTEX
  5
EE6
  8
PATTERN_FILL
  6
CONTINUOUS
 62
     7
 10
104.51323671637471
 20
45.220386898581772
 30
0.0
  0
VERTEX
  5
EE7
  8
PATTERN_FILL
  6
CONTINUOUS
 62
     7
 10
103.4525765445949
 20
44.159726726801964
 30
0.0
  0
VERTEX
  5
EE8
  8
PATTERN_FILL
  6
CONTINUOUS
 62
     7
 10
104.51323671637471
 20
43.099066555022141
 30
0.0
  0
VERTEX
  5
EE9
  8
PATTERN_FILL
  6
CONTINUOUS
 62
     7
 10
104.90000000000001
 20
43.485829838647398
 30
0.0
  0
SEQEND
  5
EEA
  8
PATTERN_FILL
  6
CONTINUOUS
 62
     7
  0
POLYLINE
  5
3C3
  8
PATTERN_FILL
  6
CONTINUOUS
 62
     7
 66
     1
 10
0.0
 20
0.0
 30
0.0
  0
VERTEX
  5
EEB
  8
PATTERN_FILL
  6
CONTINUOUS
 62
     7
 10
104.90000000000001
 20
42.133623614956541
 30
0.0
  0
VERTEX
  5
EEC
  8
PATTERN_FILL
  6
CONTINUOUS
 62
     7
 10
104.51323671637471
 20
42.520386898581791
 30
0.0
  0
VERTEX
  5
EED
  8
PATTERN_FILL
  6
CONTINUOUS
 62
     7
 10
103.4525765445949
 20
41.459726726801961
 30
0.0
  0
VERTEX
  5
EEE
  8
PATTERN_FILL
  6
CONTINUOUS
 62
     7
 10
104.51323671637471
 20
40.399066555022152
 30
0.0
  0
VERTEX
  5
EEF
  8
PATTERN_FILL
  6
CONTINUOUS
 62
     7
 10
104.90000000000001
 20
40.785829838647402
 30
0.0
  0
SEQEND
  5
EF0
  8
PATTERN_FILL
  6
CONTINUOUS
 62
     7
  0
POLYLINE
  5
3CB
  8
PATTERN_FILL
  6
CONTINUOUS
 62
     7
 66
     1
 10
0.0
 20
0.0
 30
0.0
  0
VERTEX
  5
EF1
  8
PATTERN_FILL
  6
CONTINUOUS
 62
     7
 10
104.90000000000001
 20
39.433623614956552
 30
0.0
  0
VERTEX
  5
EF2
  8
PATTERN_FILL
  6
CONTINUOUS
 62
     7
 10
104.51323671637471
 20
39.820386898581781
 30
0.0
  0
VERTEX
  5
EF3
  8
PATTERN_FILL
  6
CONTINUOUS
 62
     7
 10
103.4525765445949
 20
38.759726726801972
 30
0.0
  0
VERTEX
  5
EF4
  8
PATTERN_FILL
  6
CONTINUOUS
 62
     7
 10
104.51323671637471
 20
37.699066555022164
 30
0.0
  0
VERTEX
  5
EF5
  8
PATTERN_FILL
  6
CONTINUOUS
 62
     7
 10
104.90000000000001
 20
38.085829838647399
 30
0.0
  0
SEQEND
  5
EF6
  8
PATTERN_FILL
  6
CONTINUOUS
 62
     7
  0
POLYLINE
  5
3D3
  8
PATTERN_FILL
  6
CONTINUOUS
 62
     7
 66
     1
 10
0.0
 20
0.0
 30
0.0
  0
VERTEX
  5
EF7
  8
PATTERN_FILL
  6
CONTINUOUS
 62
     7
 10
104.90000000000001
 20
36.733623614956549
 30
0.0
  0
VERTEX
  5
EF8
  8
PATTERN_FILL
  6
CONTINUOUS
 62
     7
 10
104.51323671637471
 20
37.120386898581792
 30
0.0
  0
VERTEX
  5
EF9
  8
PATTERN_FILL
  6
CONTINUOUS
 62
     7
 10
103.4525765445949
 20
36.059726726801969
 30
0.0
  0
VERTEX
  5
EFA
  8
PATTERN_FILL
  6
CONTINUOUS
 62
     7
 10
104.51323671637471
 20
34.999066555022161
 30
0.0
  0
VERTEX
  5
EFB
  8
PATTERN_FILL
  6
CONTINUOUS
 62
     7
 10
104.90000000000001
 20
35.385829838647403
 30
0.0
  0
SEQEND
  5
EFC
  8
PATTERN_FILL
  6
CONTINUOUS
 62
     7
  0
POLYLINE
  5
3DB
  8
PATTERN_FILL
  6
CONTINUOUS
 62
     7
 66
     1
 10
0.0
 20
0.0
 30
0.0
  0
VERTEX
  5
EFD
  8
PATTERN_FILL
  6
CONTINUOUS
 62
     7
 10
104.90000000000001
 20
34.033623614956561
 30
0.0
  0
VERTEX
  5
EFE
  8
PATTERN_FILL
  6
CONTINUOUS
 62
     7
 10
104.51323671637471
 20
34.420386898581803
 30
0.0
  0
VERTEX
  5
EFF
  8
PATTERN_FILL
  6
CONTINUOUS
 62
     7
 10
103.4525765445949
 20
33.359726726801973
 30
0.0
  0
VERTEX
  5
F00
  8
PATTERN_FILL
  6
CONTINUOUS
 62
     7
 10
104.51323671637471
 20
32.299066555022151
 30
0.0
  0
VERTEX
  5
F01
  8
PATTERN_FILL
  6
CONTINUOUS
 62
     7
 10
104.90000000000001
 20
32.685829838647393
 30
0.0
  0
SEQEND
  5
F02
  8
PATTERN_FILL
  6
CONTINUOUS
 62
     7
  0
POLYLINE
  5
3E3
  8
PATTERN_FILL
  6
CONTINUOUS
 62
     7
 66
     1
 10
0.0
 20
0.0
 30
0.0
  0
VERTEX
  5
F03
  8
PATTERN_FILL
  6
CONTINUOUS
 62
     7
 10
104.90000000000001
 20
31.333623614956551
 30
0.0
  0
VERTEX
  5
F04
  8
PATTERN_FILL
  6
CONTINUOUS
 62
     7
 10
104.51323671637471
 20
31.7203868985818
 30
0.0
  0
VERTEX
  5
F05
  8
PATTERN_FILL
  6
CONTINUOUS
 62
     7
 10
103.4525765445949
 20
30.659726726801981
 30
0.0
  0
VERTEX
  5
F06
  8
PATTERN_FILL
  6
CONTINUOUS
 62
     7
 10
104.51323671637471
 20
29.599066555022159
 30
0.0
  0
VERTEX
  5
F07
  8
PATTERN_FILL
  6
CONTINUOUS
 62
     7
 10
104.90000000000001
 20
29.985829838647408
 30
0.0
  0
SEQEND
  5
F08
  8
PATTERN_FILL
  6
CONTINUOUS
 62
     7
  0
POLYLINE
  5
3EB
  8
PATTERN_FILL
  6
CONTINUOUS
 62
     7
 66
     1
 10
0.0
 20
0.0
 30
0.0
  0
VERTEX
  5
F09
  8
PATTERN_FILL
  6
CONTINUOUS
 62
     7
 10
104.90000000000001
 20
28.633623614956552
 30
0.0
  0
VERTEX
  5
F0A
  8
PATTERN_FILL
  6
CONTINUOUS
 62
     7
 10
104.51323671637471
 20
29.020386898581791
 30
0.0
  0
VERTEX
  5
F0B
  8
PATTERN_FILL
  6
CONTINUOUS
 62
     7
 10
103.4525765445949
 20
27.959726726801971
 30
0.0
  0
VERTEX
  5
F0C
  8
PATTERN_FILL
  6
CONTINUOUS
 62
     7
 10
104.51323671637471
 20
26.899066555022159
 30
0.0
  0
VERTEX
  5
F0D
  8
PATTERN_FILL
  6
CONTINUOUS
 62
     7
 10
104.90000000000001
 20
27.285829838647398
 30
0.0
  0
SEQEND
  5
F0E
  8
PATTERN_FILL
  6
CONTINUOUS
 62
     7
  0
POLYLINE
  5
3F3
  8
PATTERN_FILL
  6
CONTINUOUS
 62
     7
 66
     1
 10
0.0
 20
0.0
 30
0.0
  0
VERTEX
  5
F0F
  8
PATTERN_FILL
  6
CONTINUOUS
 62
     7
 10
104.0046944151083
 20
49.007608856288577
 30
0.0
  0
VERTEX
  5
F10
  8
PATTERN_FILL
  6
CONTINUOUS
 62
     7
 10
104.51323671637471
 20
48.499066555022146
 30
0.0
  0
VERTEX
  5
F11
  8
PATTERN_FILL
  6
CONTINUOUS
 62
     7
 10
104.72793115527401
 20
48.713760993921383
 30
0.0
  0
SEQEND
  5
F12
  8
PATTERN_FILL
  6
CONTINUOUS
 62
     7
  0
POLYLINE
  5
3F9
  8
PATTERN_FILL
  6
CONTINUOUS
 62
     7
 66
     1
 10
0.0
 20
0.0
 30
0.0
  0
VERTEX
  5
F13
  8
PATTERN_FILL
  6
CONTINUOUS
 62
     7
 10
104.90000000000001
 20
47.533623614956532
 30
0.0
  0
VERTEX
  5
F14
  8
PATTERN_FILL
  6
CONTINUOUS
 62
     7
 10
104.51323671637471
 20
47.920386898581782
 30
0.0
  0
VERTEX
  5
F15
  8
PATTERN_FILL
  6
CONTINUOUS
 62
     7
 10
103.4525765445949
 20
46.859726726801959
 30
0.0
  0
VERTEX
  5
F16
  8
PATTERN_FILL
  6
CONTINUOUS
 62
     7
 10
104.51323671637471
 20
45.799066555022137
 30
0.0
  0
VERTEX
  5
F17
  8
PATTERN_FILL
  6
CONTINUOUS
 62
     7
 10
104.90000000000001
 20
46.185829838647393
 30
0.0
  0
SEQEND
  5
F18
  8
PATTERN_FILL
  6
CONTINUOUS
 62
     7
  0
POLYLINE
  5
401
  8
PATTERN_FILL
  6
CONTINUOUS
 62
     7
 66
     1
 10
0.0
 20
0.0
 30
0.0
 70
     1
  0
VERTEX
  5
F19
  8
PATTERN_FILL
  6
CONTINUOUS
 62
     7
 10
102.8738968881546
 20
25.259726726801969
 30
0.0
  0
VERTEX
  5
F1A
  8
PATTERN_FILL
  6
CONTINUOUS
 62
     7
 10
101.8132367163747
 20
26.320386898581798
 30
0.0
  0
VERTEX
  5
F1B
  8
PATTERN_FILL
  6
CONTINUOUS
 62
     7
 10
100.7525765445949
 20
25.259726726801969
 30
0.0
  0
VERTEX
  5
F1C
  8
PATTERN_FILL
  6
CONTINUOUS
 62
     7
 10
101.8132367163747
 20
24.19906655502216
 30
0.0
  0
SEQEND
  5
F1D
  8
PATTERN_FILL
  6
CONTINUOUS
 62
     7
  0
POLYLINE
  5
408
  8
PATTERN_FILL
  6
CONTINUOUS
 62
     7
 66
     1
 10
0.0
 20
0.0
 30
0.0
 70
     1
  0
VERTEX
  5
F1E
  8
PATTERN_FILL
  6
CONTINUOUS
 62
     7
 10
102.8738968881546
 20
22.559726726801969
 30
0.0
  0
VERTEX
  5
F1F
  8
PATTERN_FILL
  6
CONTINUOUS
 62
     7
 10
101.8132367163747
 20
23.620386898581788
 30
0.0
  0
VERTEX
  5
F20
  8
PATTERN_FILL
  6
CONTINUOUS
 62
     7
 10
100.7525765445949
 20
22.559726726801969
 30
0.0
  0
VERTEX
  5
F21
  8
PATTERN_FILL
  6
CONTINUOUS
 62
     7
 10
101.8132367163747
 20
21.499066555022161
 30
0.0
  0
SEQEND
  5
F22
  8
PATTERN_FILL
  6
CONTINUOUS
 62
     7
  0
POLYLINE
  5
40F
  8
PATTERN_FILL
  6
CONTINUOUS
 62
     7
 66
     1
 10
0.0
 20
0.0
 30
0.0
 70
     1
  0
VERTEX
  5
F23
  8
PATTERN_FILL
  6
CONTINUOUS
 62
     7
 10
102.8738968881546
 20
19.859726726801959
 30
0.0
  0
VERTEX
  5
F24
  8
PATTERN_FILL
  6
CONTINUOUS
 62
     7
 10
101.8132367163747
 20
20.920386898581789
 30
0.0
  0
VERTEX
  5
F25
  8
PATTERN_FILL
  6
CONTINUOUS
 62
     7
 10
100.7525765445949
 20
19.859726726801959
 30
0.0
  0
VERTEX
  5
F26
  8
PATTERN_FILL
  6
CONTINUOUS
 62
     7
 10
101.8132367163747
 20
18.799066555022151
 30
0.0
  0
SEQEND
  5
F27
  8
PATTERN_FILL
  6
CONTINUOUS
 62
     7
  0
POLYLINE
  5
416
  8
PATTERN_FILL
  6
CONTINUOUS
 62
     7
 66
     1
 10
0.0
 20
0.0
 30
0.0
 70
     1
  0
VERTEX
  5
F28
  8
PATTERN_FILL
  6
CONTINUOUS
 62
     7
 10
102.8738968881546
 20
17.159726726801981
 30
0.0
  0
VERTEX
  5
F29
  8
PATTERN_FILL
  6
CONTINUOUS
 62
     7
 10
101.8132367163747
 20
18.220386898581769
 30
0.0
  0
VERTEX
  5
F2A
  8
PATTERN_FILL
  6
CONTINUOUS
 62
     7
 10
100.7525765445949
 20
17.159726726801981
 30
0.0
  0
VERTEX
  5
F2B
  8
PATTERN_FILL
  6
CONTINUOUS
 62
     7
 10
101.8132367163747
 20
16.099066555022141
 30
0.0
  0
SEQEND
  5
F2C
  8
PATTERN_FILL
  6
CONTINUOUS
 62
     7
  0
POLYLINE
  5
41D
  8
PATTERN_FILL
  6
CONTINUOUS
 62
     7
 66
     1
 10
0.0
 20
0.0
 30
0.0
  0
VERTEX
  5
F2D
  8
PATTERN_FILL
  6
CONTINUOUS
 62
     7
 10
104.90000000000001
 20
25.933623614956559
 30
0.0
  0
VERTEX
  5
F2E
  8
PATTERN_FILL
  6
CONTINUOUS
 62
     7
 10
104.51323671637471
 20
26.320386898581798
 30
0.0
  0
VERTEX
  5
F2F
  8
PATTERN_FILL
  6
CONTINUOUS
 62
     7
 10
103.4525765445949
 20
25.259726726801969
 30
0.0
  0
VERTEX
  5
F30
  8
PATTERN_FILL
  6
CONTINUOUS
 62
     7
 10
104.51323671637471
 20
24.19906655502216
 30
0.0
  0
VERTEX
  5
F31
  8
PATTERN_FILL
  6
CONTINUOUS
 62
     7
 10
104.90000000000001
 20
24.585829838647388
 30
0.0
  0
SEQEND
  5
F32
  8
PATTERN_FILL
  6
CONTINUOUS
 62
     7
  0
POLYLINE
  5
425
  8
PATTERN_FILL
  6
CONTINUOUS
 62
     7
 66
     1
 10
0.0
 20
0.0
 30
0.0
  0
VERTEX
  5
F33
  8
PATTERN_FILL
  6
CONTINUOUS
 62
     7
 10
104.90000000000001
 20
23.23362361495656
 30
0.0
  0
VERTEX
  5
F34
  8
PATTERN_FILL
  6
CONTINUOUS
 62
     7
 10
104.51323671637471
 20
23.620386898581788
 30
0.0
  0
VERTEX
  5
F35
  8
PATTERN_FILL
  6
CONTINUOUS
 62
     7
 10
103.4525765445949
 20
22.559726726801969
 30
0.0
  0
VERTEX
  5
F36
  8
PATTERN_FILL
  6
CONTINUOUS
 62
     7
 10
104.51323671637471
 20
21.499066555022161
 30
0.0
  0
VERTEX
  5
F37
  8
PATTERN_FILL
  6
CONTINUOUS
 62
     7
 10
104.90000000000001
 20
21.885829838647371
 30
0.0
  0
SEQEND
  5
F38
  8
PATTERN_FILL
  6
CONTINUOUS
 62
     7
  0
POLYLINE
  5
42D
  8
PATTERN_FILL
  6
CONTINUOUS
 62
     7
 66
     1
 10
0.0
 20
0.0
 30
0.0
  0
VERTEX
  5
F39
  8
PATTERN_FILL
  6
CONTINUOUS
 62
     7
 10
104.90000000000001
 20
20.53362361495655
 30
0.0
  0
VERTEX
  5
F3A
  8
PATTERN_FILL
  6
CONTINUOUS
 62
     7
 10
104.51323671637471
 20
20.920386898581789
 30
0.0
  0
VERTEX
  5
F3B
  8
PATTERN_FILL
  6
CONTINUOUS
 62
     7
 10
103.4525765445949
 20
19.859726726801959
 30
0.0
  0
VERTEX
  5
F3C
  8
PATTERN_FILL
  6
CONTINUOUS
 62
     7
 10
104.51323671637471
 20
18.799066555022151
 30
0.0
  0
VERTEX
  5
F3D
  8
PATTERN_FILL
  6
CONTINUOUS
 62
     7
 10
104.90000000000001
 20
19.185829838647368
 30
0.0
  0
SEQEND
  5
F3E
  8
PATTERN_FILL
  6
CONTINUOUS
 62
     7
  0
POLYLINE
  5
435
  8
PATTERN_FILL
  6
CONTINUOUS
 62
     7
 66
     1
 10
0.0
 20
0.0
 30
0.0
  0
VERTEX
  5
F3F
  8
PATTERN_FILL
  6
CONTINUOUS
 62
     7
 10
104.90000000000001
 20
17.83362361495654
 30
0.0
  0
VERTEX
  5
F40
  8
PATTERN_FILL
  6
CONTINUOUS
 62
     7
 10
104.51323671637471
 20
18.220386898581769
 30
0.0
  0
VERTEX
  5
F41
  8
PATTERN_FILL
  6
CONTINUOUS
 62
     7
 10
103.4525765445949
 20
17.159726726801981
 30
0.0
  0
VERTEX
  5
F42
  8
PATTERN_FILL
  6
CONTINUOUS
 62
     7
 10
104.51323671637471
 20
16.099066555022141
 30
0.0
  0
VERTEX
  5
F43
  8
PATTERN_FILL
  6
CONTINUOUS
 62
     7
 10
104.90000000000001
 20
16.485829838647359
 30
0.0
  0
SEQEND
  5
F44
  8
PATTERN_FILL
  6
CONTINUOUS
 62
     7
  0
POLYLINE
  5
43D
  8
PATTERN_FILL
  6
CONTINUOUS
 62
     7
 66
     1
 10
0.0
 20
0.0
 30
0.0
 70
     1
  0
VERTEX
  5
F45
  8
PATTERN_FILL
  6
CONTINUOUS
 62
     7
 10
100.1738968881545
 20
49.559726726801962
 30
0.0
  0
VERTEX
  5
F46
  8
PATTERN_FILL
  6
CONTINUOUS
 62
     7
 10
99.113236716374743
 20
50.620386898581778
 30
0.0
  0
VERTEX
  5
F47
  8
PATTERN_FILL
  6
CONTINUOUS
 62
     7
 10
98.052576544594913
 20
49.559726726801962
 30
0.0
  0
VERTEX
  5
F48
  8
PATTERN_FILL
  6
CONTINUOUS
 62
     7
 10
99.113236716374743
 20
48.499066555022146
 30
0.0
  0
SEQEND
  5
F49
  8
PATTERN_FILL
  6
CONTINUOUS
 62
     7
  0
POLYLINE
  5
444
  8
PATTERN_FILL
  6
CONTINUOUS
 62
     7
 66
     1
 10
0.0
 20
0.0
 30
0.0
 70
     1
  0
VERTEX
  5
F4A
  8
PATTERN_FILL
  6
CONTINUOUS
 62
     7
 10
100.1738968881545
 20
46.859726726801959
 30
0.0
  0
VERTEX
  5
F4B
  8
PATTERN_FILL
  6
CONTINUOUS
 62
     7
 10
99.113236716374743
 20
47.920386898581782
 30
0.0
  0
VERTEX
  5
F4C
  8
PATTERN_FILL
  6
CONTINUOUS
 62
     7
 10
98.052576544594913
 20
46.859726726801959
 30
0.0
  0
VERTEX
  5
F4D
  8
PATTERN_FILL
  6
CONTINUOUS
 62
     7
 10
99.113236716374743
 20
45.799066555022137
 30
0.0
  0
SEQEND
  5
F4E
  8
PATTERN_FILL
  6
CONTINUOUS
 62
     7
  0
POLYLINE
  5
44B
  8
PATTERN_FILL
  6
CONTINUOUS
 62
     7
 66
     1
 10
0.0
 20
0.0
 30
0.0
 70
     1
  0
VERTEX
  5
F4F
  8
PATTERN_FILL
  6
CONTINUOUS
 62
     7
 10
97.473896888154584
 20
49.559726726801962
 30
0.0
  0
VERTEX
  5
F50
  8
PATTERN_FILL
  6
CONTINUOUS
 62
     7
 10
96.413236716374755
 20
50.620386898581778
 30
0.0
  0
VERTEX
  5
F51
  8
PATTERN_FILL
  6
CONTINUOUS
 62
     7
 10
95.352576544594896
 20
49.559726726801962
 30
0.0
  0
VERTEX
  5
F52
  8
PATTERN_FILL
  6
CONTINUOUS
 62
     7
 10
96.413236716374755
 20
48.499066555022146
 30
0.0
  0
SEQEND
  5
F53
  8
PATTERN_FILL
  6
CONTINUOUS
 62
     7
  0
POLYLINE
  5
452
  8
PATTERN_FILL
  6
CONTINUOUS
 62
     7
 66
     1
 10
0.0
 20
0.0
 30
0.0
 70
     1
  0
VERTEX
  5
F54
  8
PATTERN_FILL
  6
CONTINUOUS
 62
     7
 10
97.473896888154584
 20
46.859726726801959
 30
0.0
  0
VERTEX
  5
F55
  8
PATTERN_FILL
  6
CONTINUOUS
 62
     7
 10
96.413236716374755
 20
47.920386898581782
 30
0.0
  0
VERTEX
  5
F56
  8
PATTERN_FILL
  6
CONTINUOUS
 62
     7
 10
95.352576544594896
 20
46.859726726801959
 30
0.0
  0
VERTEX
  5
F57
  8
PATTERN_FILL
  6
CONTINUOUS
 62
     7
 10
96.413236716374755
 20
45.799066555022137
 30
0.0
  0
SEQEND
  5
F58
  8
PATTERN_FILL
  6
CONTINUOUS
 62
     7
  0
POLYLINE
  5
459
  8
PATTERN_FILL
  6
CONTINUOUS
 62
     7
 66
     1
 10
0.0
 20
0.0
 30
0.0
 70
     1
  0
VERTEX
  5
F59
  8
PATTERN_FILL
  6
CONTINUOUS
 62
     7
 10
97.473896888154584
 20
44.159726726801971
 30
0.0
  0
VERTEX
  5
F5A
  8
PATTERN_FILL
  6
CONTINUOUS
 62
     7
 10
96.413236716374755
 20
45.220386898581772
 30
0.0
  0
VERTEX
  5
F5B
  8
PATTERN_FILL
  6
CONTINUOUS
 62
     7
 10
95.352576544594896
 20
44.159726726801964
 30
0.0
  0
VERTEX
  5
F5C
  8
PATTERN_FILL
  6
CONTINUOUS
 62
     7
 10
96.413236716374755
 20
43.099066555022141
 30
0.0
  0
SEQEND
  5
F5D
  8
PATTERN_FILL
  6
CONTINUOUS
 62
     7
  0
POLYLINE
  5
460
  8
PATTERN_FILL
  6
CONTINUOUS
 62
     7
 66
     1
 10
0.0
 20
0.0
 30
0.0
 70
     1
  0
VERTEX
  5
F5E
  8
PATTERN_FILL
  6
CONTINUOUS
 62
     7
 10
97.473896888154584
 20
41.459726726801968
 30
0.0
  0
VERTEX
  5
F5F
  8
PATTERN_FILL
  6
CONTINUOUS
 62
     7
 10
96.413236716374755
 20
42.520386898581791
 30
0.0
  0
VERTEX
  5
F60
  8
PATTERN_FILL
  6
CONTINUOUS
 62
     7
 10
95.352576544594896
 20
41.459726726801961
 30
0.0
  0
VERTEX
  5
F61
  8
PATTERN_FILL
  6
CONTINUOUS
 62
     7
 10
96.413236716374755
 20
40.399066555022152
 30
0.0
  0
SEQEND
  5
F62
  8
PATTERN_FILL
  6
CONTINUOUS
 62
     7
  0
POLYLINE
  5
467
  8
PATTERN_FILL
  6
CONTINUOUS
 62
     7
 66
     1
 10
0.0
 20
0.0
 30
0.0
 70
     1
  0
VERTEX
  5
F63
  8
PATTERN_FILL
  6
CONTINUOUS
 62
     7
 10
97.473896888154584
 20
38.759726726801972
 30
0.0
  0
VERTEX
  5
F64
  8
PATTERN_FILL
  6
CONTINUOUS
 62
     7
 10
96.413236716374755
 20
39.820386898581781
 30
0.0
  0
VERTEX
  5
F65
  8
PATTERN_FILL
  6
CONTINUOUS
 62
     7
 10
95.352576544594896
 20
38.759726726801972
 30
0.0
  0
VERTEX
  5
F66
  8
PATTERN_FILL
  6
CONTINUOUS
 62
     7
 10
96.413236716374755
 20
37.699066555022164
 30
0.0
  0
SEQEND
  5
F67
  8
PATTERN_FILL
  6
CONTINUOUS
 62
     7
  0
POLYLINE
  5
46E
  8
PATTERN_FILL
  6
CONTINUOUS
 62
     7
 66
     1
 10
0.0
 20
0.0
 30
0.0
 70
     1
  0
VERTEX
  5
F68
  8
PATTERN_FILL
  6
CONTINUOUS
 62
     7
 10
97.473896888154584
 20
36.059726726801991
 30
0.0
  0
VERTEX
  5
F69
  8
PATTERN_FILL
  6
CONTINUOUS
 62
     7
 10
96.413236716374755
 20
37.120386898581792
 30
0.0
  0
VERTEX
  5
F6A
  8
PATTERN_FILL
  6
CONTINUOUS
 62
     7
 10
95.352576544594896
 20
36.059726726801969
 30
0.0
  0
VERTEX
  5
F6B
  8
PATTERN_FILL
  6
CONTINUOUS
 62
     7
 10
96.413236716374755
 20
34.999066555022161
 30
0.0
  0
SEQEND
  5
F6C
  8
PATTERN_FILL
  6
CONTINUOUS
 62
     7
  0
POLYLINE
  5
475
  8
PATTERN_FILL
  6
CONTINUOUS
 62
     7
 66
     1
 10
0.0
 20
0.0
 30
0.0
 70
     1
  0
VERTEX
  5
F6D
  8
PATTERN_FILL
  6
CONTINUOUS
 62
     7
 10
97.473896888154584
 20
33.359726726801981
 30
0.0
  0
VERTEX
  5
F6E
  8
PATTERN_FILL
  6
CONTINUOUS
 62
     7
 10
96.413236716374755
 20
34.420386898581803
 30
0.0
  0
VERTEX
  5
F6F
  8
PATTERN_FILL
  6
CONTINUOUS
 62
     7
 10
95.352576544594896
 20
33.359726726801973
 30
0.0
  0
VERTEX
  5
F70
  8
PATTERN_FILL
  6
CONTINUOUS
 62
     7
 10
96.413236716374755
 20
32.299066555022151
 30
0.0
  0
SEQEND
  5
F71
  8
PATTERN_FILL
  6
CONTINUOUS
 62
     7
  0
POLYLINE
  5
47C
  8
PATTERN_FILL
  6
CONTINUOUS
 62
     7
 66
     1
 10
0.0
 20
0.0
 30
0.0
 70
     1
  0
VERTEX
  5
F72
  8
PATTERN_FILL
  6
CONTINUOUS
 62
     7
 10
97.473896888154584
 20
30.659726726801981
 30
0.0
  0
VERTEX
  5
F73
  8
PATTERN_FILL
  6
CONTINUOUS
 62
     7
 10
96.413236716374755
 20
31.7203868985818
 30
0.0
  0
VERTEX
  5
F74
  8
PATTERN_FILL
  6
CONTINUOUS
 62
     7
 10
95.352576544594896
 20
30.659726726801981
 30
0.0
  0
VERTEX
  5
F75
  8
PATTERN_FILL
  6
CONTINUOUS
 62
     7
 10
96.413236716374755
 20
29.599066555022159
 30
0.0
  0
SEQEND
  5
F76
  8
PATTERN_FILL
  6
CONTINUOUS
 62
     7
  0
POLYLINE
  5
483
  8
PATTERN_FILL
  6
CONTINUOUS
 62
     7
 66
     1
 10
0.0
 20
0.0
 30
0.0
 70
     1
  0
VERTEX
  5
F77
  8
PATTERN_FILL
  6
CONTINUOUS
 62
     7
 10
97.473896888154584
 20
27.959726726801971
 30
0.0
  0
VERTEX
  5
F78
  8
PATTERN_FILL
  6
CONTINUOUS
 62
     7
 10
96.413236716374755
 20
29.020386898581791
 30
0.0
  0
VERTEX
  5
F79
  8
PATTERN_FILL
  6
CONTINUOUS
 62
     7
 10
95.352576544594896
 20
27.959726726801971
 30
0.0
  0
VERTEX
  5
F7A
  8
PATTERN_FILL
  6
CONTINUOUS
 62
     7
 10
96.413236716374755
 20
26.899066555022159
 30
0.0
  0
SEQEND
  5
F7B
  8
PATTERN_FILL
  6
CONTINUOUS
 62
     7
  0
POLYLINE
  5
48A
  8
PATTERN_FILL
  6
CONTINUOUS
 62
     7
 66
     1
 10
0.0
 20
0.0
 30
0.0
 70
     1
  0
VERTEX
  5
F7C
  8
PATTERN_FILL
  6
CONTINUOUS
 62
     7
 10
97.473896888154584
 20
25.259726726801969
 30
0.0
  0
VERTEX
  5
F7D
  8
PATTERN_FILL
  6
CONTINUOUS
 62
     7
 10
96.413236716374755
 20
26.320386898581798
 30
0.0
  0
VERTEX
  5
F7E
  8
PATTERN_FILL
  6
CONTINUOUS
 62
     7
 10
95.352576544594896
 20
25.259726726801969
 30
0.0
  0
VERTEX
  5
F7F
  8
PATTERN_FILL
  6
CONTINUOUS
 62
     7
 10
96.413236716374755
 20
24.19906655502216
 30
0.0
  0
SEQEND
  5
F80
  8
PATTERN_FILL
  6
CONTINUOUS
 62
     7
  0
POLYLINE
  5
491
  8
PATTERN_FILL
  6
CONTINUOUS
 62
     7
 66
     1
 10
0.0
 20
0.0
 30
0.0
 70
     1
  0
VERTEX
  5
F81
  8
PATTERN_FILL
  6
CONTINUOUS
 62
     7
 10
97.473896888154584
 20
22.559726726801969
 30
0.0
  0
VERTEX
  5
F82
  8
PATTERN_FILL
  6
CONTINUOUS
 62
     7
 10
96.413236716374755
 20
23.620386898581788
 30
0.0
  0
VERTEX
  5
F83
  8
PATTERN_FILL
  6
CONTINUOUS
 62
     7
 10
95.352576544594896
 20
22.559726726801969
 30
0.0
  0
VERTEX
  5
F84
  8
PATTERN_FILL
  6
CONTINUOUS
 62
     7
 10
96.413236716374755
 20
21.499066555022161
 30
0.0
  0
SEQEND
  5
F85
  8
PATTERN_FILL
  6
CONTINUOUS
 62
     7
  0
POLYLINE
  5
498
  8
PATTERN_FILL
  6
CONTINUOUS
 62
     7
 66
     1
 10
0.0
 20
0.0
 30
0.0
 70
     1
  0
VERTEX
  5
F86
  8
PATTERN_FILL
  6
CONTINUOUS
 62
     7
 10
97.473896888154584
 20
19.859726726801959
 30
0.0
  0
VERTEX
  5
F87
  8
PATTERN_FILL
  6
CONTINUOUS
 62
     7
 10
96.413236716374755
 20
20.920386898581789
 30
0.0
  0
VERTEX
  5
F88
  8
PATTERN_FILL
  6
CONTINUOUS
 62
     7
 10
95.352576544594896
 20
19.859726726801959
 30
0.0
  0
VERTEX
  5
F89
  8
PATTERN_FILL
  6
CONTINUOUS
 62
     7
 10
96.413236716374755
 20
18.799066555022151
 30
0.0
  0
SEQEND
  5
F8A
  8
PATTERN_FILL
  6
CONTINUOUS
 62
     7
  0
POLYLINE
  5
49F
  8
PATTERN_FILL
  6
CONTINUOUS
 62
     7
 66
     1
 10
0.0
 20
0.0
 30
0.0
  0
VERTEX
  5
F8B
  8
PATTERN_FILL
  6
CONTINUOUS
 62
     7
 10
96.917062319405574
 20
16.602892158052921
 30
0.0
  0
VERTEX
  5
F8C
  8
PATTERN_FILL
  6
CONTINUOUS
 62
     7
 10
97.473896888154584
 20
17.159726726801981
 30
0.0
  0
VERTEX
  5
F8D
  8
PATTERN_FILL
  6
CONTINUOUS
 62
     7
 10
96.413236716374755
 20
18.220386898581769
 30
0.0
  0
VERTEX
  5
F8E
  8
PATTERN_FILL
  6
CONTINUOUS
 62
     7
 10
95.352576544594896
 20
17.159726726801981
 30
0.0
  0
VERTEX
  5
F8F
  8
PATTERN_FILL
  6
CONTINUOUS
 62
     7
 10
95.67030743732937
 20
16.841995834067539
 30
0.0
  0
SEQEND
  5
F90
  8
PATTERN_FILL
  6
CONTINUOUS
 62
     7
  0
POLYLINE
  5
4A7
  8
PATTERN_FILL
  6
CONTINUOUS
 62
     7
 66
     1
 10
0.0
 20
0.0
 30
0.0
  0
VERTEX
  5
F91
  8
PATTERN_FILL
  6
CONTINUOUS
 62
     7
 10
95.539734243591326
 20
52.446884425798352
 30
0.0
  0
VERTEX
  5
F92
  8
PATTERN_FILL
  6
CONTINUOUS
 62
     7
 10
95.352576544594896
 20
52.259726726801958
 30
0.0
  0
VERTEX
  5
F93
  8
PATTERN_FILL
  6
CONTINUOUS
 62
     7
 10
96.413236716374755
 20
51.199066555022142
 30
0.0
  0
VERTEX
  5
F94
  8
PATTERN_FILL
  6
CONTINUOUS
 62
     7
 10
97.048179859917155
 20
51.834009698564557
 30
0.0
  0
SEQEND
  5
F95
  8
PATTERN_FILL
  6
CONTINUOUS
 62
     7
  0
LINE
  5
4AE
  8
SPEC
  6
CONTINUOUS
 62
     7
 10
-64.999999999999986
 20
383.53181499999999
 30
0.0
 11
230.0
 21
383.53181499999999
 31
0.0
  0
LINE
  5
4AF
  8
SPEC
  6
CONTINUOUS
 62
     7
 10
-64.999999999999986
 20
376.03181499999999
 30
0.0
 11
230.0
 21
376.03181499999999
 31
0.0
  0
LINE
  5
4B0
  8
SPEC
  6
CONTINUOUS
 62
     7
 10
-64.999999999999986
 20
346.03181499999988
 30
0.0
 11
230.0
 21
346.03181499999988
 31
0.0
  0
LINE
  5
4B1
  8
SPEC
  6
CONTINUOUS
 62
     7
 10
-64.999999999999986
 20
353.53181499999988
 30
0.0
 11
230.0
 21
353.53181499999988
 31
0.0
  0
LINE
  5
4B2
  8
SPEC
  6
CONTINUOUS
 62
     7
 10
-64.999999999999986
 20
361.03181499999999
 30
0.0
 11
230.0
 21
361.03181499999999
 31
0.0
  0
LINE
  5
4B3
  8
SPEC
  6
CONTINUOUS
 62
     7
 10
-64.999999999999986
 20
338.53181499999988
 30
0.0
 11
230.0
 21
338.53181499999988
 31
0.0
  0
LINE
  5
4B4
  8
SPEC
  6
CONTINUOUS
 62
     7
 10
-64.999999999999986
 20
323.53181499999988
 30
0.0
 11
230.0
 21
323.53181499999988
 31
0.0
  0
LINE
  5
4B5
  8
SPEC
  6
CONTINUOUS
 62
     7
 10
-64.999999999999986
 20
331.03181499999999
 30
0.0
 11
230.0
 21
331.03181499999999
 31
0.0
  0
LINE
  5
4B6
  8
SPEC
  6
CONTINUOUS
 62
     7
 10
-64.999999999999986
 20
316.03181499999988
 30
0.0
 11
230.0
 21
316.03181499999988
 31
0.0
  0
LINE
  5
4B7
  8
SPEC
  6
CONTINUOUS
 62
     7
 10
-64.999999999999986
 20
308.53181499999988
 30
0.0
 11
230.0
 21
308.53181499999988
 31
0.0
  0
LINE
  5
4B8
  8
SPEC
  6
CONTINUOUS
 62
     7
 10
-64.999999999999986
 20
368.53181499999999
 30
0.0
 11
230.0
 21
368.53181499999999
 31
0.0
  0
LINE
  5
4B9
  8
SPEC
  6
CONTINUOUS
 62
     7
 10
-64.999999999999986
 20
383.53181499999999
 30
0.0
 11
-64.999999999999986
 21
286.03181499999988
 31
0.0
  0
TEXT
  5
4BA
  8
SPEC
 62
     7
 10
-62.5
 20
386.318355
 30
0.0
 40
4.8865234375000002
  1
仕様
 41
0.7
 11
-62.5
 21
391.20487843749999
 31
0.0
 73
     3
  0
LINE
  5
4BB
  8
SPEC
  6
CONTINUOUS
 62
     7
 10
0.0
 20
383.53181499999999
 30
0.0
 11
0.0
 21
286.03181499999988
 31
0.0
  0
LINE
  5
4BC
  8
SPEC
  6
CONTINUOUS
 62
     7
 10
230.0
 20
383.53181499999999
 30
0.0
 11
230.0
 21
286.03181499999988
 31
0.0
  0
TEXT
  5
4BD
  8
SPEC
 62
     7
 10
-63.308794425698537
 20
377.90428533747769
 30
0.0
 40
3.8006224999999989
  1
形式
 41
0.7
 11
-63.308794425698537
 21
381.70490783747772
 31
0.0
 73
     3
  0
TEXT
  5
4BE
  8
SPEC
 62
     7
 10
1.7775424789259791
 20
295.21499722157188
 30
0.0
 40
3.8006293402777769
  1
約160g
 41
0.7
 11
1.7775424789259799
 21
299.01562656184967
 31
0.0
 73
     3
  0
TEXT
  5
4BF
  8
SPEC
 62
     7
 10
-63.417559566154928
 20
302.62595872050139
 30
0.0
 40
3.8006293402777769
  1
寸法
 41
0.7
 11
-63.417559566154928
 21
306.42658806077918
 31
0.0
 73
     3
  0
TEXT
  5
4C0
  8
SPEC
 62
     7
 10
-63.281750550964851
 20
295.48390412114452
 30
0.0
 40
3.8006293402777769
  1
重量
 41
0.7
 11
-63.281750550964851
 21
299.28453346142231
 31
0.0
 73
     3
  0
TEXT
  5
4C1
  8
SPEC
 62
     7
 10
1.7298534233041629
 20
302.63704382806401
 30
0.0
 40
3.8006293402777769
  1
67(W)\U+00D720(H)\U+00D797(D)mm(突起部含まず)
 41
0.7
 11
1.7298534233041629
 21
306.4376731683418
 31
0.0
 73
     3
  0
TEXT
  5
4C2
  8
SPEC
 62
     7
 10
-63.253916100825322
 20
288.15226956421452
 30
0.0
 40
3.8006293402777769
  1
付属品
 41
0.7
 11
-63.253916100825322
 21
291.95289890449232
 31
0.0
 73
     3
  0
TEXT
  5
4C3
  8
SPEC
 62
     7
 10
-63.298720064012102
 20
370.42356240483872
 30
0.0
 40
3.8006224999999989
  1
指向特性
 41
0.7
 11
-63.298720064012102
 21
374.22418490483869
 31
0.0
 73
     3
  0
TEXT
  5
4C4
  8
SPEC
 62
     7
 10
-63.213141954740131
 20
362.88363924954263
 30
0.0
 40
3.8006224999999989
  1
周波数特性
 41
0.7
 11
-63.213141954740131
 21
366.68426174954249
 31
0.0
 73
     3
  0
TEXT
  5
4C5
  8
SPEC
 62
     7
 10
-63.457226269675331
 20
355.40288670516992
 30
0.0
 40
3.8006224999999989
  1
開回路感度
 41
0.7
 11
-63.457226269675331
 21
359.20350920516989
 31
0.0
 73
     3
  0
TEXT
  5
4C6
  8
SPEC
 62
     7
 10
-63.219619983285739
 20
347.96081789914331
 30
0.0
 40
3.8006224999999989
  1
最大音圧レベル
 41
0.7
 11
-63.219619983285739
 21
351.76144039914323
 31
0.0
 73
     3
  0
TEXT
  5
4C7
  8
SPEC
 62
     7
 10
-63.265091575753651
 20
340.28991461211018
 30
0.0
 40
3.8006224999999989
  1
等価雑音レベル
 41
0.7
 11
-63.265091575753651
 21
344.09053711211021
 31
0.0
 73
     3
  0
TEXT
  5
4C8
  8
SPEC
 62
     7
 10
-63.453657257922821
 20
332.95887594173928
 30
0.0
 40
3.8006224999999989
  1
インピーダンス
 41
0.7
 11
-63.453657257922821
 21
336.7594984417392
 31
0.0
 73
     3
  0
TEXT
  5
4C9
  8
SPEC
 62
     7
 10
1.2578065438404871
 20
377.81381917325763
 30
0.0
 40
3.8006224999999989
  1
コンデンサー型 
 41
0.7
 11
1.2578065438404871
 21
381.6144416732576
 31
0.0
 73
     3
  0
TEXT
  5
4CA
  8
SPEC
 62
     7
 10
1.4002349358387951
 20
370.6022435959498
 30
0.0
 40
3.8006224999999989
  1
カーディオイド
 41
0.7
 11
1.4002349358387951
 21
374.40286609594978
 31
0.0
 73
     3
  0
TEXT
  5
4CB
  8
SPEC
 62
     7
 10
1.763254888395877
 20
363.07060901030633
 30
0.0
 40
3.8006224999999989
  1
60Hz～20kHz
 41
0.7
 11
1.763254888395877
 21
366.8712315103063
 31
0.0
 73
     3
  0
TEXT
  5
4CC
  8
SPEC
 62
     7
 10
1.951640488054365
 20
355.5309860052497
 30
0.0
 40
3.8006224999999989
  1
-30dBV re 1V/Pa
 41
0.7
 11
1.9516404880543661
 21
359.33160850524962
 31
0.0
 73
     3
  0
TEXT
  5
4CD
  8
SPEC
 62
     7
 10
1.5423333947567379
 20
347.83586066112349
 30
0.0
 40
3.8006224999999989
  1
115dB SPL (THD 1%%%)
 41
0.7
 11
1.5423333947567379
 21
351.63648316112352
 31
0.0
 73
     3
  0
TEXT
  5
4CE
  8
SPEC
 62
     7
 10
1.824022834179402
 20
340.36015364020972
 30
0.0
 40
3.8006224999999989
  1
27dB SPL(Aウェイト）
 41
0.7
 11
1.824022834179402
 21
344.16077614020958
 31
0.0
 73
     3
  0
TEXT
  5
4CF
  8
SPEC
 62
     7
 10
1.782223868920098
 20
332.84662483178238
 30
0.0
 40
3.8006224999999989
  1
200\U+03A9以下
 41
0.7
 11
1.782223868920098
 21
336.6472473317823
 31
0.0
 73
     3
  0
TEXT
  5
4D0
  8
SPEC
 62
     7
 10
-63.368307489145892
 20
325.54784701776612
 30
0.0
 40
3.8006224999999989
  1
電源
 41
0.7
 11
-63.368307489145892
 21
329.34846951776609
 31
0.0
 73
     3
  0
TEXT
  5
4D1
  8
SPEC
 62
     7
 10
1.2712025035333301
 20
325.44661384966611
 30
0.0
 40
3.8006224999999989
  1
ファンタム　DC9～52V/2mA以下
 41
0.7
 11
1.271202503533331
 21
329.24723634966608
 31
0.0
 73
     3
  0
TEXT
  5
4D2
  8
SPEC
 62
     7
 10
-63.781685723459482
 20
318.0148382064217
 30
0.0
 40
3.8006224999999989
  1
コネクター
 41
0.7
 11
-63.781685723459482
 21
321.81546070642162
 31
0.0
 73
     3
  0
TEXT
  5
4D3
  8
SPEC
 62
     7
 10
1.925704293769072
 20
317.90457659707511
 30
0.0
 40
3.8006224999999989
  1
XLR3ピン オス
 41
0.7
 11
1.925704293769072
 21
321.70519909707508
 31
0.0
 73
     3
  0
TEXT
  5
4D4
  8
SPEC
 62
     7
 10
-63.43230801743853
 20
310.33996621743859
 30
0.0
 40
3.8006224999999989
  1
ケーブル長
 41
0.7
 11
-63.43230801743853
 21
314.1405887174385
 31
0.0
 73
     3
  0
TEXT
  5
4D5
  8
SPEC
 62
     7
 10
1.8128880036377231
 20
310.51824112985719
 30
0.0
 40
3.8006224999999989
  1
2,900mm(プリアンプ付)
 41
0.7
 11
1.812888003637724
 21
314.31886362985711
 31
0.0
 73
     3
  0
LINE
  5
4D6
  8
SPEC
  6
CONTINUOUS
 62
     7
 10
-64.999999999999986
 20
301.03181499999988
 30
0.0
 11
230.0
 21
301.03181499999988
 31
0.0
  0
LINE
  5
4D7
  8
SPEC
  6
CONTINUOUS
 62
     7
 10
-64.999999999999986
 20
293.53181499999999
 30
0.0
 11
230.0
 21
293.53181499999999
 31
0.0
  0
LINE
  5
4D8
  8
SPEC
  6
CONTINUOUS
 62
     7
 10
-64.999999999999986
 20
286.03181499999988
 30
0.0
 11
230.0
 21
286.03181499999988
 31
0.0
  0
TEXT
  5
4D9
  8
SPEC
 62
     7
 10
1.8021943332801551
 20
287.93999880145691
 30
0.0
 40
3.8006293402777769
  1
粘着剤
 41
0.7
 11
1.8021943332801551
 21
291.74062814173459
 31
0.0
 73
     3
  0
TEXT
  5
4DA
  8
DIMNSIONS
 62
     7
 10
60.0
 20
-91.929204999999968
 30
0.0
 40
4.8865234375000002
  1
(単位：mm)
 41
0.7
 11
60.0
 21
-87.042681562499979
 31
0.0
 73
     3
  0
LINE
  5
4DB
  8
DIMNSIONS
  6
CONTINUOUS
 62
     7
 10
21.0
 20
-18.75
 30
0.0
 11
-16.5
 21
-18.75
 31
0.0
  0
LINE
  5
4DC
  8
DIMNSIONS
  6
CONTINUOUS
 62
     7
 10
21.0
 20
78.250000000130754
 30
0.0
 11
-16.5
 21
78.250000000130754
 31
0.0
  0
LINE
  5
4DD
  8
DIMNSIONS
  6
CONTINUOUS
 62
     7
 10
-12.5
 20
-18.75
 30
0.0
 11
-12.5
 21
78.250000000130754
 31
0.0
  0
LINE
  5
4DE
  8
DIMNSIONS
  6
CONTINUOUS
 62
     7
 10
-12.5
 20
-18.75
 30
0.0
 11
-13.840079590300491
 21
-13.7487548828125
 31
0.0
  0
LINE
  5
4DF
  8
DIMNSIONS
  6
CONTINUOUS
 62
     7
 10
-12.5
 20
-18.75
 30
0.0
 11
-11.159920409699501
 21
-13.7487548828125
 31
0.0
  0
LINE
  5
4E0
  8
DIMNSIONS
  6
CONTINUOUS
 62
     7
 10
-12.5
 20
78.250000000130754
 30
0.0
 11
-11.159920409699501
 21
73.248754882943274
 31
0.0
  0
LINE
  5
4E1
  8
DIMNSIONS
  6
CONTINUOUS
 62
     7
 10
-12.5
 20
78.250000000130754
 30
0.0
 11
-13.840079590300491
 21
73.248754882943274
 31
0.0
  0
TEXT
  5
4E2
  8
DIMNSIONS
 62
     7
 10
-14.487777777777771
 20
26.222222222287609
 30
0.0
 40
5.4294704861111107
  1
97
 50
90.0
 41
0.7
 11
-19.917248263888879
 21
26.222222222287609
 31
0.0
 73
     3
  0
LINE
  5
4E3
  8
DIMNSIONS
  6
CONTINUOUS
 62
     7
 10
7.0000000003183791
 20
187.5
 30
0.0
 11
-16.5
 21
187.5
 31
0.0
  0
LINE
  5
4E4
  8
DIMNSIONS
  6
CONTINUOUS
 62
     7
 10
-4.0
 20
207.5
 30
0.0
 11
-16.5
 21
207.5
 31
0.0
  0
LINE
  5
4E5
  8
DIMNSIONS
  6
CONTINUOUS
 62
     7
 10
-12.5
 20
187.5
 30
0.0
 11
-12.5
 21
207.5
 31
0.0
  0
LINE
  5
4E6
  8
DIMNSIONS
  6
CONTINUOUS
 62
     7
 10
-12.5
 20
187.5
 30
0.0
 11
-13.840079590300491
 21
192.50124511718741
 31
0.0
  0
LINE
  5
4E7
  8
DIMNSIONS
  6
CONTINUOUS
 62
     7
 10
-12.5
 20
187.5
 30
0.0
 11
-11.159920409699501
 21
192.50124511718741
 31
0.0
  0
LINE
  5
4E8
  8
DIMNSIONS
  6
CONTINUOUS
 62
     7
 10
-12.5
 20
207.5
 30
0.0
 11
-11.159920409699501
 21
202.49875488281251
 31
0.0
  0
LINE
  5
4E9
  8
DIMNSIONS
  6
CONTINUOUS
 62
     7
 10
-12.5
 20
207.5
 30
0.0
 11
-13.840079590300491
 21
202.49875488281251
 31
0.0
  0
TEXT
  5
4EA
  8
DIMNSIONS
 62
     7
 10
-14.487777777777771
 20
193.9722222222222
 30
0.0
 40
5.4294704861111107
  1
20
 50
90.0
 41
0.7
 11
-19.917248263888879
 21
193.9722222222222
 31
0.0
 73
     3
  0
LINE
  5
4EB
  8
DIMNSIONS
  6
CONTINUOUS
 62
     7
 10
-0.0044524896323992
 20
49.650000000000013
 30
0.0
 11
-0.0044524896323992
 21
-35.25
 31
0.0
  0
LINE
  5
4EC
  8
DIMNSIONS
  6
CONTINUOUS
 62
     7
 10
67.004519153489355
 20
49.593536630086881
 30
0.0
 11
67.004519153489355
 21
-35.25
 31
0.0
  0
LINE
  5
4ED
  8
DIMNSIONS
  6
CONTINUOUS
 62
     7
 10
-0.0044524896323992
 20
-31.25
 30
0.0
 11
67.004519153489355
 21
-31.25
 31
0.0
  0
LINE
  5
4EE
  8
DIMNSIONS
  6
CONTINUOUS
 62
     7
 10
-0.0044524896323992
 20
-31.25
 30
0.0
 11
4.9967926275550951
 21
-29.909920409699509
 31
0.0
  0
LINE
  5
4EF
  8
DIMNSIONS
  6
CONTINUOUS
 62
     7
 10
-0.0044524896323992
 20
-31.25
 30
0.0
 11
4.9967926275550951
 21
-32.590079590300491
 31
0.0
  0
LINE
  5
4F0
  8
DIMNSIONS
  6
CONTINUOUS
 62
     7
 10
67.004519153489355
 20
-31.25
 30
0.0
 11
62.003274036301853
 21
-32.590079590300491
 31
0.0
  0
LINE
  5
4F1
  8
DIMNSIONS
  6
CONTINUOUS
 62
     7
 10
67.004519153489355
 20
-31.25
 30
0.0
 11
62.003274036301853
 21
-29.909920409699509
 31
0.0
  0
TEXT
  5
4F2
  8
DIMNSIONS
 62
     7
 10
29.972255554150699
 20
-29.262222222222238
 30
0.0
 40
5.4294704861111107
  1
67
 41
0.7
 11
29.972255554150699
 21
-23.832751736111131
 31
0.0
 73
     3
  0
LINE
  5
4F3
  8
DIMNSIONS
  6
CONTINUOUS
 62
     7
 10
23.75
 20
150.0
 30
0.0
 11
135.1147865048159
 21
150.0
 31
0.0
  0
LINE
  5
4F4
  8
DIMNSIONS
  6
CONTINUOUS
 62
     7
 10
135.1147865048159
 20
150.0
 30
0.0
 11
130.1135413876284
 21
148.65992040969951
 31
0.0
  0
LINE
  5
4F5
  8
DIMNSIONS
  6
CONTINUOUS
 62
     7
 10
135.1147865048159
 20
150.0
 30
0.0
 11
130.1135413876284
 21
151.34007959030041
 31
0.0
  0
TEXT
  5
4F6
  8
DIMNSIONS
 62
     7
 10
76.551837697006974
 20
151.98777777777769
 30
0.0
 40
5.4294704861111107
  1
2900
 41
0.7
 11
76.551837697006974
 21
157.41724826388881
 31
0.0
 73
     3
  0
LINE
  5
4F7
  8
DIMNSIONS
  6
CONTINUOUS
 62
     7
 10
28.10000000030924
 20
150.0
 30
0.0
 11
23.75
 21
150.0
 31
0.0
  0
LINE
  5
4F8
  8
DIMNSIONS
  6
CONTINUOUS
 62
     7
 10
18.75
 20
145.0
 30
0.0
 11
18.75
 21
78.250000000130754
 31
0.0
  0
LINE
  5
4F9
  8
DIMNSIONS
  6
CONTINUOUS
 62
     7
 10
18.75
 20
78.250000000130754
 30
0.0
 11
17.048522628062369
 21
84.600000000130734
 31
0.0
  0
LINE
  5
4FA
  8
DIMNSIONS
  6
CONTINUOUS
 62
     7
 10
18.75
 20
78.250000000130754
 30
0.0
 11
20.451477371937631
 21
84.600000000130734
 31
0.0
  0
ARC
  5
4FB
  8
DIMNSIONS
  6
CONTINUOUS
 62
     7
 10
23.75
 20
145.0
 30
0.0
 40
5.0
 50
90.0
 51
180.0
  0
LINE
  5
4FC
  8
DIMNSIONS
  6
CONTINUOUS
 62
     7
 10
135.1147865048159
 20
154.0
 30
0.0
 11
135.1147865048159
 21
140.05000000000001
 31
0.0
  0
TEXT
  5
4FD
  8
DATA
 62
     7
 10
200.0
 20
-94.206404999999947
 30
0.0
 40
4.8865234375000002
  1
C 680 BL
 41
0.7
 11
200.0
 21
-89.319881562499958
 31
0.0
 73
     3
  0
TEXT
  5
4FE
  8
DATA
 62
     7
 10
200.0
 20
-79.706404999999975
 30
0.0
 40
4.8865234375000002
  1
AKG
 41
0.7
 11
200.0
 21
-74.819881562499972
 31
0.0
 73
     3
  0
TEXT
  5
4FF
  8
DATA
 62
     7
 10
195.0
 20
-86.660317399999997
 30
0.0
 40
3.257687421875
  1
バウンダリー・マイクロホン
 41
0.7
 11
195.0
 21
-83.402629978124978
 31
0.0
 73
     3
  0
TEXT
  5
500
  8
DATA
 62
     7
 10
-60.0
 20
-107.99218500000001
 30
0.0
 40
3.2576822916666659
  1
仕様および外観は予告なく変更されることがありますので、ご了承ください。
 41
0.7
 11
-60.0
 21
-104.7345027083333
 31
0.0
 73
     3
  0
LINE
  5
501
  8
DATA
  6
CONTINUOUS
 62
     7
 10
10.887640228133529
 20
-0.3402611024257567
 30
0.0
 11
0.4827586206972542
 21
49.95000000018247
 31
0.0
  0
ARC
  5
502
  8
DATA
  6
CONTINUOUS
 62
     7
 10
45.124380165306789
 20
-223.68181818167491
 30
0.0
 40
302.16326513470187
 50
92.242695216514932
 51
94.571696288408575
  0
ARC
  5
503
  8
DATA
  6
CONTINUOUS
 62
     7
 10
13.94899750967766
 20
53.605294198567421
 30
0.0
 40
13.95352161613425
 50
169.4086194528515
 51
195.18651971382599
  0
LINE
  5
504
  8
DATA
  6
CONTINUOUS
 62
     7
 10
56.112359772515042
 20
-0.3402611023692543
 30
0.0
 11
66.517241379939534
 21
49.95000000018247
 31
0.0
  0
ARC
  5
505
  8
DATA
  6
CONTINUOUS
 62
     7
 10
21.875619835330269
 20
-223.68181818167491
 30
0.0
 40
302.16326513470187
 50
85.42830371159144
 51
87.757304783485054
  0
ARC
  5
506
  8
DATA
  6
CONTINUOUS
 62
     7
 10
53.05100249095932
 20
53.605294198567421
 30
0.0
 40
13.953521616134029
 50
344.81348028617379
 51
10.59138054714867
  0
ARC
  5
507
  8
DATA
  6
CONTINUOUS
 62
     7
 10
39.844301962343678
 20
50.746289598235109
 30
0.0
 40
27.463383507820399
 50
11.390148635439891
 51
77.133183928686293
  0
LINE
  5
508
  8
DATA
  6
CONTINUOUS
 62
     7
 10
33.300000000018507
 20
78.250000000130754
 30
0.0
 11
33.700000000618559
 21
78.250000000130754
 31
0.0
  0
ARC
  5
509
  8
DATA
  6
CONTINUOUS
 62
     7
 10
33.644361754207168
 20
4.5193691461071799
 30
0.0
 40
23.269816947447481
 50
191.32445289010639
 51
269.64454502167217
  0
ARC
  5
50A
  8
DATA
  6
CONTINUOUS
 62
     7
 10
33.355638246429912
 20
4.5193691461071799
 30
0.0
 40
23.269816947447278
 50
270.35545497832783
 51
348.6755471098935
  0
LINE
  5
50B
  8
DATA
  6
CONTINUOUS
 62
     7
 10
32.500000000318543
 20
74.757766143805682
 30
0.0
 11
34.500000000318543
 21
74.757766143805682
 31
0.0
  0
LINE
  5
50C
  8
DATA
  6
CONTINUOUS
 62
     7
 10
36.500000000318529
 20
74.757766143805682
 30
0.0
 11
38.500000000318529
 21
74.757766143805682
 31
0.0
  0
LINE
  5
50D
  8
DATA
  6
CONTINUOUS
 62
     7
 10
40.500000000318529
 20
74.757766143805682
 30
0.0
 11
42.500000000318522
 21
74.757766143805682
 31
0.0
  0
ARC
  5
50E
  8
DATA
  6
CONTINUOUS
 62
     7
 10
27.155698038293391
 20
50.746289598235109
 30
0.0
 40
27.463383507820492
 50
102.86681607131371
 51
168.6098513645602
  0
LINE
  5
50F
  8
DATA
  6
CONTINUOUS
 62
     7
 10
14.387640228133611
 20
-0.3402611024257567
 30
0.0
 11
3.9827586206972541
 21
49.95000000018247
 31
0.0
  0
LINE
  5
510
  8
DATA
  6
CONTINUOUS
 62
     7
 10
52.612359772515049
 20
-0.3402611023692543
 30
0.0
 11
63.017241379939499
 21
49.95000000018247
 31
0.0
  0
LINE
  5
511
  8
DATA
  6
CONTINUOUS
 62
     7
 10
14.387640228133611
 20
-0.3402611024257567
 30
0.0
 11
22.500000000318519
 21
-12.24999999986923
 31
0.0
  0
LINE
  5
512
  8
DATA
  6
CONTINUOUS
 62
     7
 10
22.500000000318519
 20
-12.24999999986923
 30
0.0
 11
25.850000000318531
 21
-13.74999999986923
 31
0.0
  0
ARC
  5
513
  8
DATA
  6
CONTINUOUS
 62
     7
 10
33.801388889207431
 20
6.5445833334640886
 30
0.0
 40
21.79666712908092
 50
248.60482471886729
 51
269.20772925801703
  0
LINE
  5
514
  8
DATA
  6
CONTINUOUS
 62
     7
 10
52.612359772503389
 20
-0.3402611024257567
 30
0.0
 11
44.500000000318522
 21
-12.24999999986923
 31
0.0
  0
LINE
  5
515
  8
DATA
  6
CONTINUOUS
 62
     7
 10
44.500000000318522
 20
-12.24999999986923
 30
0.0
 11
41.150000000318542
 21
-13.74999999986923
 31
0.0
  0
ARC
  5
516
  8
DATA
  6
CONTINUOUS
 62
     7
 10
33.198611111429649
 20
6.5445833334640886
 30
0.0
 40
21.79666712908092
 50
270.79227074198297
 51
291.39517528113282
  0
LINE
  5
517
  8
DATA
  6
CONTINUOUS
 62
     7
 10
3.9827586206972541
 20
49.95000000018247
 30
0.0
 11
9.0000000003183231
 21
64.950000000130743
 31
0.0
  0
LINE
  5
518
  8
DATA
  6
CONTINUOUS
 62
     7
 10
32.500000000318543
 20
61.320276713465141
 30
0.0
 11
32.500000000318543
 21
74.757766143805682
 31
0.0
  0
LINE
  5
519
  8
DATA
  6
CONTINUOUS
 62
     7
 10
34.500000000318543
 20
74.757766143805682
 30
0.0
 11
34.500000000318543
 21
61.320276713465141
 31
0.0
  0
LINE
  5
51A
  8
DATA
  6
CONTINUOUS
 62
     7
 10
36.500000000318529
 20
74.757766143805682
 30
0.0
 11
36.500000000318529
 21
61.320276713465141
 31
0.0
  0
LINE
  5
51B
  8
DATA
  6
CONTINUOUS
 62
     7
 10
38.500000000318529
 20
74.757766143805682
 30
0.0
 11
38.500000000318529
 21
61.320276713465141
 31
0.0
  0
LINE
  5
51C
  8
DATA
  6
CONTINUOUS
 62
     7
 10
40.500000000318529
 20
74.757766143805682
 30
0.0
 11
40.500000000318529
 21
61.320276713465141
 31
0.0
  0
LINE
  5
51D
  8
DATA
  6
CONTINUOUS
 62
     7
 10
42.500000000318522
 20
74.757766143805682
 30
0.0
 11
42.500000000318522
 21
61.320276713465141
 31
0.0
  0
LINE
  5
51E
  8
DATA
  6
CONTINUOUS
 62
     7
 10
44.500000000318522
 20
74.757766143805682
 30
0.0
 11
44.500000000318522
 21
63.658593359571341
 31
0.0
  0
LINE
  5
51F
  8
DATA
  6
CONTINUOUS
 62
     7
 10
30.50000000031854
 20
61.320276713465141
 30
0.0
 11
30.50000000031854
 21
74.757766143805682
 31
0.0
  0
LINE
  5
520
  8
DATA
  6
CONTINUOUS
 62
     7
 10
28.50000000031854
 20
61.320276713465141
 30
0.0
 11
28.50000000031854
 21
74.757766143805682
 31
0.0
  0
LINE
  5
521
  8
DATA
  6
CONTINUOUS
 62
     7
 10
26.50000000031854
 20
61.320276713465141
 30
0.0
 11
26.50000000031854
 21
74.757766143805682
 31
0.0
  0
LINE
  5
522
  8
DATA
  6
CONTINUOUS
 62
     7
 10
24.50000000031854
 20
61.320276713465141
 30
0.0
 11
24.50000000031854
 21
74.757766143805682
 31
0.0
  0
LINE
  5
523
  8
DATA
  6
CONTINUOUS
 62
     7
 10
22.500000000318519
 20
63.658593359571427
 30
0.0
 11
22.500000000318519
 21
74.757766143805682
 31
0.0
  0
LINE
  5
524
  8
DATA
  6
CONTINUOUS
 62
     7
 10
24.50000000031854
 20
61.320276713465141
 30
0.0
 11
26.50000000031854
 21
61.320276713465141
 31
0.0
  0
LINE
  5
525
  8
DATA
  6
CONTINUOUS
 62
     7
 10
28.50000000031854
 20
61.320276713465141
 30
0.0
 11
30.50000000031854
 21
61.320276713465141
 31
0.0
  0
LINE
  5
526
  8
DATA
  6
CONTINUOUS
 62
     7
 10
32.500000000318543
 20
61.320276713465141
 30
0.0
 11
34.500000000318543
 21
61.320276713465141
 31
0.0
  0
LINE
  5
527
  8
DATA
  6
CONTINUOUS
 62
     7
 10
36.500000000318529
 20
61.320276713465141
 30
0.0
 11
38.500000000318529
 21
61.320276713465141
 31
0.0
  0
LINE
  5
528
  8
DATA
  6
CONTINUOUS
 62
     7
 10
40.500000000318529
 20
61.320276713465141
 30
0.0
 11
42.500000000318522
 21
61.320276713465141
 31
0.0
  0
LINE
  5
529
  8
DATA
  6
CONTINUOUS
 62
     7
 10
24.50000000031854
 20
74.757766143805682
 30
0.0
 11
26.50000000031854
 21
74.757766143805682
 31
0.0
  0
LINE
  5
52A
  8
DATA
  6
CONTINUOUS
 62
     7
 10
28.50000000031854
 20
74.757766143805682
 30
0.0
 11
30.50000000031854
 21
74.757766143805682
 31
0.0
  0
LINE
  5
52B
  8
DATA
  6
CONTINUOUS
 62
     7
 10
9.0000000003183231
 20
64.950000000130743
 30
0.0
 11
22.500000000318519
 21
74.757766143805682
 31
0.0
  0
LINE
  5
52C
  8
DATA
  6
CONTINUOUS
 62
     7
 10
58.000000000318501
 20
64.950000000130743
 30
0.0
 11
44.500000000318522
 21
74.757766143805682
 31
0.0
  0
LINE
  5
52D
  8
DATA
  6
CONTINUOUS
 62
     7
 10
63.017241379939499
 20
49.95000000018247
 30
0.0
 11
58.000000000318501
 21
64.950000000130743
 31
0.0
  0
LINE
  5
52E
  8
DATA
  6
CONTINUOUS
 62
     7
 10
30.250000000318551
 20
16.250000000130711
 30
0.0
 11
31.550000000318551
 21
16.250000000130711
 31
0.0
  0
LINE
  5
52F
  8
DATA
  6
CONTINUOUS
 62
     7
 10
32.850000000318552
 20
16.250000000130711
 30
0.0
 11
34.150000000318549
 21
16.250000000130711
 31
0.0
  0
LINE
  5
530
  8
DATA
  6
CONTINUOUS
 62
     7
 10
35.450000000318539
 20
16.250000000130711
 30
0.0
 11
36.750000000318529
 21
16.250000000130711
 31
0.0
  0
LINE
  5
531
  8
DATA
  6
CONTINUOUS
 62
     7
 10
32.850000000318552
 20
-15.231310611861231
 30
0.0
 11
32.850000000318552
 21
16.250000000130711
 31
0.0
  0
LINE
  5
532
  8
DATA
  6
CONTINUOUS
 62
     7
 10
34.150000000318549
 20
16.250000000130711
 30
0.0
 11
34.150000000318549
 21
-15.231310611861231
 31
0.0
  0
LINE
  5
533
  8
DATA
  6
CONTINUOUS
 62
     7
 10
35.450000000318539
 20
16.250000000130711
 30
0.0
 11
35.450000000318539
 21
-15.13549844698462
 31
0.0
  0
LINE
  5
534
  8
DATA
  6
CONTINUOUS
 62
     7
 10
36.750000000318529
 20
16.250000000130711
 30
0.0
 11
36.750000000318529
 21
-14.9608191248912
 31
0.0
  0
LINE
  5
535
  8
DATA
  6
CONTINUOUS
 62
     7
 10
38.050000000318548
 20
16.250000000130711
 30
0.0
 11
38.050000000318548
 21
-14.705327814225971
 31
0.0
  0
LINE
  5
536
  8
DATA
  6
CONTINUOUS
 62
     7
 10
39.350000000318552
 20
16.250000000130711
 30
0.0
 11
39.350000000318552
 21
-14.366062583714349
 31
0.0
  0
LINE
  5
537
  8
DATA
  6
CONTINUOUS
 62
     7
 10
31.550000000318551
 20
-15.13549844698462
 30
0.0
 11
31.550000000318551
 21
16.250000000130711
 31
0.0
  0
LINE
  5
538
  8
DATA
  6
CONTINUOUS
 62
     7
 10
30.250000000318551
 20
-14.9608191248912
 30
0.0
 11
30.250000000318551
 21
16.250000000130711
 31
0.0
  0
LINE
  5
539
  8
DATA
  6
CONTINUOUS
 62
     7
 10
28.950000000318539
 20
-14.705327814225971
 30
0.0
 11
28.950000000318539
 21
16.250000000130711
 31
0.0
  0
LINE
  5
53A
  8
DATA
  6
CONTINUOUS
 62
     7
 10
27.650000000318549
 20
-14.366062583714349
 30
0.0
 11
27.650000000318549
 21
16.250000000130711
 31
0.0
  0
LINE
  5
53B
  8
DATA
  6
CONTINUOUS
 62
     7
 10
25.350000000318531
 20
15.250000000130679
 30
0.0
 11
22.500000000318519
 21
63.658593359571427
 31
0.0
  0
LINE
  5
53C
  8
DATA
  6
CONTINUOUS
 62
     7
 10
44.500000000318522
 20
63.658593359571427
 30
0.0
 11
41.650000000318528
 21
15.250000000130679
 31
0.0
  0
LINE
  5
53D
  8
DATA
  6
CONTINUOUS
 62
     7
 10
11.00000000031838
 20
55.25776614380564
 30
0.0
 11
22.500000000318519
 21
63.658593359571427
 31
0.0
  0
LINE
  5
53E
  8
DATA
  6
CONTINUOUS
 62
     7
 10
56.000000000318501
 20
55.35000000013072
 30
0.0
 11
44.500000000318522
 21
63.658593359571427
 31
0.0
  0
LINE
  5
53F
  8
DATA
  6
CONTINUOUS
 62
     7
 10
21.000000000318519
 20
16.250000000130711
 30
0.0
 11
11.00000000031838
 21
55.25776614380564
 31
0.0
  0
LINE
  5
540
  8
DATA
  6
CONTINUOUS
 62
     7
 10
56.000000000318501
 20
55.35000000013072
 30
0.0
 11
46.000000000318543
 21
16.250000000130711
 31
0.0
  0
LINE
  5
541
  8
DATA
  6
CONTINUOUS
 62
     7
 10
25.350000000318531
 20
15.250000000130679
 30
0.0
 11
21.000000000318519
 21
16.250000000130711
 31
0.0
  0
LINE
  5
542
  8
DATA
  6
CONTINUOUS
 62
     7
 10
41.650000000318528
 20
15.250000000130679
 30
0.0
 11
46.000000000318543
 21
16.250000000130711
 31
0.0
  0
LINE
  5
543
  8
DATA
  6
CONTINUOUS
 62
     7
 10
21.000000000318519
 20
16.250000000130711
 30
0.0
 11
22.500000000318519
 21
-12.24999999986923
 31
0.0
  0
LINE
  5
544
  8
DATA
  6
CONTINUOUS
 62
     7
 10
44.500000000318522
 20
-12.24999999986923
 30
0.0
 11
46.000000000318543
 21
16.250000000130711
 31
0.0
  0
LINE
  5
545
  8
DATA
  6
CONTINUOUS
 62
     7
 10
11.00000000031838
 20
55.25776614380564
 30
0.0
 11
9.0000000003183231
 21
64.950000000130743
 31
0.0
  0
LINE
  5
546
  8
DATA
  6
CONTINUOUS
 62
     7
 10
56.000000000318501
 20
55.35000000013072
 30
0.0
 11
58.000000000318501
 21
64.950000000130743
 31
0.0
  0
LINE
  5
547
  8
DATA
  6
CONTINUOUS
 62
     7
 10
11.00000000031838
 20
55.25776614380564
 30
0.0
 11
3.9827586206972541
 21
49.95000000018247
 31
0.0
  0
LINE
  5
548
  8
DATA
  6
CONTINUOUS
 62
     7
 10
56.000000000318501
 20
55.35000000013072
 30
0.0
 11
63.017241379939499
 21
49.95000000018247
 31
0.0
  0
LINE
  5
549
  8
DATA
  6
CONTINUOUS
 62
     7
 10
20.154014616832239
 20
19.550000000130709
 30
0.0
 11
11.74137931036322
 21
12.45000000013072
 31
0.0
  0
LINE
  5
54A
  8
DATA
  6
CONTINUOUS
 62
     7
 10
46.845985383804809
 20
19.550000000130709
 30
0.0
 11
55.258620690273673
 21
12.45000000013072
 31
0.0
  0
TEXT
  5
54B
  8
DATA
 62
     7
 10
27.962043849593559
 20
41.27729713571685
 30
0.0
 40
2.7147352430555549
  1
C680
 41
0.7
 11
27.962043849593559
 21
43.992032378772407
 31
0.0
 73
     3
  0
TEXT
  5
54C
  8
DATA
 62
     7
 10
29.861642226033741
 20
28.48685816593937
 30
0.0
 40
1.6288411458333329
  1
AUSTRIA
 41
0.7
 11
29.861642226033741
 21
30.115699311772701
 31
0.0
 73
     3
  0
TEXT
  5
54D
  8
DATA
 62
     7
 10
29.861642226033741
 20
30.959350842245971
 30
0.0
 40
1.6288411458333329
  1
MADE IN
 41
0.7
 11
29.861642226033741
 21
32.588191988079302
 31
0.0
 73
     3
  0
TEXT
  5
54E
  8
DATA
 62
     7
 10
30.352943105781989
 20
46.441528430100803
 30
0.0
 40
3.2576822916666659
  1
AKG
 41
0.7
 11
30.352943105781989
 21
49.699210721767471
 31
0.0
 73
     3
  0
LINE
  5
54F
  8
DATA
  6
CONTINUOUS
 62
     7
 10
33.050000000318533
 20
24.25325675955369
 30
0.0
 11
33.950000000318539
 21
24.25325675955369
 31
0.0
  0
LINE
  5
550
  8
DATA
  6
CONTINUOUS
 62
     7
 10
33.050000000318533
 20
24.25325675955369
 30
0.0
 11
33.050000000318533
 21
21.608575908489851
 31
0.0
  0
LINE
  5
551
  8
DATA
  6
CONTINUOUS
 62
     7
 10
33.950000000318539
 20
24.25325675955369
 30
0.0
 11
33.950000000318539
 21
21.608575908489851
 31
0.0
  0
LINE
  5
552
  8
DATA
  6
CONTINUOUS
 62
     7
 10
32.250000000318543
 20
21.75325675955369
 30
0.0
 11
33.050000000318533
 21
21.608575908489851
 31
0.0
  0
LINE
  5
553
  8
DATA
  6
CONTINUOUS
 62
     7
 10
34.750000000318543
 20
21.75325675955369
 30
0.0
 11
33.950000000318539
 21
21.608575908489851
 31
0.0
  0
LINE
  5
554
  8
DATA
  6
CONTINUOUS
 62
     7
 10
28.950000000318539
 20
16.250000000130711
 30
0.0
 11
27.650000000318549
 21
16.250000000130711
 31
0.0
  0
LINE
  5
555
  8
DATA
  6
CONTINUOUS
 62
     7
 10
39.350000000318552
 20
16.250000000130711
 30
0.0
 11
38.050000000318548
 21
16.250000000130711
 31
0.0
  0
LINE
  5
556
  8
DATA
  6
CONTINUOUS
 62
     7
 10
25.350000000318531
 20
15.250000000130679
 30
0.0
 11
25.350000000318531
 21
-13.546925414878389
 31
0.0
  0
LINE
  5
557
  8
DATA
  6
CONTINUOUS
 62
     7
 10
41.650000000318549
 20
15.250000000130679
 30
0.0
 11
41.650000000318549
 21
-13.546925414878389
 31
0.0
  0
TEXT
  5
558
  8
DATA
 62
     7
 10
35.678432306968212
 20
41.27729713571685
 30
0.0
 40
2.7147352430555549
  1
BL
 41
0.7
 11
35.678432306968212
 21
43.992032378772407
 31
0.0
 73
     3
  0
LINE
  5
559
  8
DATA
  6
CONTINUOUS
 62
     7
 10
33.500000000318543
 20
17.753256759553661
 30
0.0
 11
32.250000000318543
 21
21.75325675955369
 31
0.0
  0
LINE
  5
55A
  8
DATA
  6
CONTINUOUS
 62
     7
 10
33.500000000318543
 20
17.753256759553661
 30
0.0
 11
34.750000000318543
 21
21.75325675955369
 31
0.0
  0
LINE
  5
55B
  8
DATA
  6
CONTINUOUS
 62
     7
 10
206.11613351853489
 20
-0.3402611024257567
 30
0.0
 11
216.5210151259711
 21
49.95000000018247
 31
0.0
  0
ARC
  5
55C
  8
DATA
  6
CONTINUOUS
 62
     7
 10
171.87939358136219
 20
-223.68181818167491
 30
0.0
 40
302.16326513470182
 50
85.428303711591496
 51
87.529569699181636
  0
ARC
  5
55D
  8
DATA
  6
CONTINUOUS
 62
     7
 10
203.0547762369909
 20
53.605294198567421
 30
0.0
 40
13.95352161613407
 50
344.81348028617379
 51
10.59138054714867
  0
LINE
  5
55E
  8
DATA
  6
CONTINUOUS
 62
     7
 10
160.89141397415401
 20
-0.3402611023692543
 30
0.0
 11
150.48653236672939
 21
49.95000000018247
 31
0.0
  0
ARC
  5
55F
  8
DATA
  6
CONTINUOUS
 62
     7
 10
195.12815391133839
 20
-223.68181818167491
 30
0.0
 40
302.16326513470187
 50
92.470430300815565
 51
94.571696288408205
  0
ARC
  5
560
  8
DATA
  6
CONTINUOUS
 62
     7
 10
163.95277125570971
 20
53.605294198567421
 30
0.0
 40
13.953521616134109
 50
169.40861945285141
 51
195.1865197138261
  0
ARC
  5
561
  8
DATA
  6
CONTINUOUS
 62
     7
 10
177.15947178432521
 20
50.746289598235109
 30
0.0
 40
27.463383507820481
 50
102.86681607131359
 51
168.60985136456
  0
ARC
  5
562
  8
DATA
  6
CONTINUOUS
 62
     7
 10
183.3594119924617
 20
4.5193691461071799
 30
0.0
 40
23.269816947447278
 50
270.35545497832783
 51
348.67554710989327
  0
ARC
  5
563
  8
DATA
  6
CONTINUOUS
 62
     7
 10
183.64813550023891
 20
4.5193691461071799
 30
0.0
 40
23.269816947447119
 50
191.3244528901065
 51
269.64454502167217
  0
ARC
  5
564
  8
DATA
  6
CONTINUOUS
 62
     7
 10
189.8480757083754
 20
50.746289598235109
 30
0.0
 40
27.463383507820321
 50
11.39014863543993
 51
77.133183928686464
  0
CIRCLE
  5
565
  8
DATA
  6
CONTINUOUS
 62
     7
 10
172.62320226138669
 20
13.32224922794134
 30
0.0
 40
2.9999999999999711
  0
CIRCLE
  5
566
  8
DATA
  6
CONTINUOUS
 62
     7
 10
194.6232022613865
 20
13.32224922794134
 30
0.0
 40
3.0
  0
CIRCLE
  5
567
  8
DATA
  6
CONTINUOUS
 62
     7
 10
167.62320226138681
 20
52.322249227941342
 30
0.0
 40
2.9999999999999432
  0
CIRCLE
  5
568
  8
DATA
  6
CONTINUOUS
 62
     7
 10
199.6232022613865
 20
52.322249227941342
 30
0.0
 40
3.0
  0
CIRCLE
  5
569
  8
DATA
  6
CONTINUOUS
 62
     7
 10
169.62320226138669
 20
63.250000000130747
 30
0.0
 40
1.9999999999999709
  0
CIRCLE
  5
56A
  8
DATA
  6
CONTINUOUS
 62
     7
 10
197.6232022613865
 20
63.250000000130747
 30
0.0
 40
2.0
  0
LINE
  5
56B
  8
DATA
  6
CONTINUOUS
 62
     7
 10
161.8549552743502
 20
73.550000000130751
 30
0.0
 11
182.10377374635021
 21
73.550000000130751
 31
0.0
  0
LINE
  5
56C
  8
DATA
  6
CONTINUOUS
 62
     7
 10
184.9037737463502
 20
73.550000000130751
 30
0.0
 11
205.15259221835029
 21
73.550000000130751
 31
0.0
  0
POLYLINE
  5
56D
  8
DATA
  6
CONTINUOUS
 62
     7
 66
     1
 10
0.0
 20
0.0
 30
0.0
  0
VERTEX
  5
F96
  8
DATA
  6
CONTINUOUS
 62
     7
 10
184.9037737463502
 20
73.550000000130751
 30
0.0
  0
VERTEX
  5
F97
  8
DATA
  6
CONTINUOUS
 62
     7
 10
187.50377374635011
 20
73.550000000130751
 30
0.0
  0
VERTEX
  5
F98
  8
DATA
  6
CONTINUOUS
 62
     7
 10
187.50377374635011
 20
63.550000000130773
 30
0.0
  0
VERTEX
  5
F99
  8
DATA
  6
CONTINUOUS
 62
     7
 10
179.50377374635019
 20
63.550000000130773
 30
0.0
  0
VERTEX
  5
F9A
  8
DATA
  6
CONTINUOUS
 62
     7
 10
179.50377374635019
 20
73.550000000130751
 30
0.0
  0
VERTEX
  5
F9B
  8
DATA
  6
CONTINUOUS
 62
     7
 10
182.10377374635021
 20
73.550000000130751
 30
0.0
  0
SEQEND
  5
F9C
  8
DATA
  6
CONTINUOUS
 62
     7
  0
LINE
  5
576
  8
DATA
  6
CONTINUOUS
 62
     7
 10
195.9500502604848
 20
-15.04999999986924
 30
0.0
 11
188.8924972541362
 21
-15.04999999986924
 31
0.0
  0
LINE
  5
577
  8
DATA
  6
CONTINUOUS
 62
     7
 10
178.6924972541363
 20
-15.04999999986924
 30
0.0
 11
171.0574972322157
 21
-15.04999999986924
 31
0.0
  0
LINE
  5
578
  8
DATA
  6
CONTINUOUS
 62
     7
 10
183.29249725413621
 20
-18.74772998991784
 30
0.0
 11
183.29249725413621
 21
-9.7499999998692601
 31
0.0
  0
LINE
  5
579
  8
DATA
  6
CONTINUOUS
 62
     7
 10
184.29249725413621
 20
-9.7499999998692601
 30
0.0
 11
184.29249725413621
 21
-18.731732605469041
 31
0.0
  0
LINE
  5
57A
  8
DATA
  6
CONTINUOUS
 62
     7
 10
185.59249725413611
 20
-9.7499999998692601
 30
0.0
 11
185.59249725413611
 21
-18.643051085418652
 31
0.0
  0
LINE
  5
57B
  8
DATA
  6
CONTINUOUS
 62
     7
 10
186.59249725413611
 20
-9.7499999998692601
 30
0.0
 11
186.59249725413611
 21
-18.524752456992559
 31
0.0
  0
LINE
  5
57C
  8
DATA
  6
CONTINUOUS
 62
     7
 10
187.89249725413609
 20
-9.7499999998692601
 30
0.0
 11
187.89249725413609
 21
-18.304642744401772
 31
0.0
  0
LINE
  5
57D
  8
DATA
  6
CONTINUOUS
 62
     7
 10
188.8924972541362
 20
-9.7499999998692601
 30
0.0
 11
188.8924972541362
 21
-18.083049933600758
 31
0.0
  0
LINE
  5
57E
  8
DATA
  6
CONTINUOUS
 62
     7
 10
181.9924972541362
 20
-9.7499999998692601
 30
0.0
 11
181.9924972541362
 21
-18.691474069203821
 31
0.0
  0
LINE
  5
57F
  8
DATA
  6
CONTINUOUS
 62
     7
 10
180.9924972541362
 20
-9.7499999998692601
 30
0.0
 11
180.9924972541362
 21
-18.59841548550369
 31
0.0
  0
LINE
  5
580
  8
DATA
  6
CONTINUOUS
 62
     7
 10
179.69249725413621
 20
-9.7499999998692601
 30
0.0
 11
179.69249725413621
 21
-18.411773582367481
 31
0.0
  0
LINE
  5
581
  8
DATA
  6
CONTINUOUS
 62
     7
 10
178.6924972541363
 20
-9.7499999998692601
 30
0.0
 11
178.6924972541363
 21
-18.216638206580559
 31
0.0
  0
LINE
  5
582
  8
DATA
  6
CONTINUOUS
 62
     7
 10
183.29249725413621
 20
-9.7499999998692601
 30
0.0
 11
184.29249725413621
 21
-9.7499999998692601
 31
0.0
  0
LINE
  5
583
  8
DATA
  6
CONTINUOUS
 62
     7
 10
185.59249725413611
 20
-9.7499999998692601
 30
0.0
 11
186.66320226138649
 21
-9.7499999998692601
 31
0.0
  0
LINE
  5
584
  8
DATA
  6
CONTINUOUS
 62
     7
 10
187.89249725413609
 20
-9.7499999998692601
 30
0.0
 11
188.8924972541362
 21
-9.7499999998692601
 31
0.0
  0
LINE
  5
585
  8
DATA
  6
CONTINUOUS
 62
     7
 10
181.9924972541362
 20
-9.7499999998692601
 30
0.0
 11
180.9924972541362
 21
-9.7499999998692601
 31
0.0
  0
LINE
  5
586
  8
DATA
  6
CONTINUOUS
 62
     7
 10
179.69249725413621
 20
-9.7499999998692601
 30
0.0
 11
178.6924972541363
 21
-9.7499999998692601
 31
0.0
  0
CIRCLE
  5
587
  8
DATA
  6
CONTINUOUS
 62
     7
 10
198.4945839317144
 20
35.322249227941342
 30
0.0
 40
1.5
  0
LINE
  5
588
  8
DATA
  6
CONTINUOUS
 62
     7
 10
112.5
 20
-18.75
 30
0.0
 11
112.5
 21
78.250000000130726
 31
0.0
  0
LINE
  5
589
  8
DATA
  6
CONTINUOUS
 62
     7
 10
107.09999999999999
 20
-17.739999999999998
 30
0.0
 11
107.09999999999999
 21
77.240000000130735
 31
0.0
  0
LINE
  5
58A
  8
DATA
  6
CONTINUOUS
 62
     7
 10
92.5
 20
15.250000000130679
 30
0.0
 11
92.5
 21
63.658593359571427
 31
0.0
  0
LINE
  5
58B
  8
DATA
  6
CONTINUOUS
 62
     7
 10
108.0
 20
-18.57
 30
0.0
 11
108.0
 21
78.070000000130733
 31
0.0
  0
LINE
  5
58C
  8
DATA
  6
CONTINUOUS
 62
     7
 10
112.5
 20
-18.75
 30
0.0
 11
108.0
 21
-18.57
 31
0.0
  0
LINE
  5
58D
  8
DATA
  6
CONTINUOUS
 62
     7
 10
108.0
 20
-18.57
 30
0.0
 11
107.09999999999999
 21
-17.739999999999998
 31
0.0
  0
LINE
  5
58E
  8
DATA
  6
CONTINUOUS
 62
     7
 10
112.5
 20
78.250000000130726
 30
0.0
 11
108.0
 21
78.070000000130733
 31
0.0
  0
LINE
  5
58F
  8
DATA
  6
CONTINUOUS
 62
     7
 10
108.0
 20
78.070000000130733
 30
0.0
 11
107.09999999999999
 21
77.240000000130735
 31
0.0
  0
LINE
  5
590
  8
DATA
  6
CONTINUOUS
 62
     7
 10
92.5
 20
63.658593359571427
 30
0.0
 11
107.09999999999999
 21
74.757766143805682
 31
0.0
  0
LINE
  5
591
  8
DATA
  6
CONTINUOUS
 62
     7
 10
93.0
 20
55.678767123418389
 30
0.0
 11
107.09999999999999
 21
64.950000000130743
 31
0.0
  0
LINE
  5
592
  8
DATA
  6
CONTINUOUS
 62
     7
 10
107.09999999999999
 20
-15.24999999986923
 30
0.0
 11
92.5
 21
15.250000000130679
 31
0.0
  0
LINE
  5
593
  8
DATA
  6
CONTINUOUS
 62
     7
 10
107.09999999999999
 20
12.45000000013072
 30
0.0
 11
93.0
 21
15.15410958917181
 31
0.0
  0
LINE
  5
594
  8
DATA
  6
CONTINUOUS
 62
     7
 10
93.0
 20
15.15410958917181
 30
0.0
 11
93.0
 21
63.530131045229133
 31
0.0
  0
LINE
  5
595
  8
DATA
  6
CONTINUOUS
 62
     7
 10
93.0
 20
63.530131045229112
 30
0.0
 11
107.09999999999999
 21
74.257766143805682
 31
0.0
  0
LINE
  5
596
  8
DATA
  6
CONTINUOUS
 62
     7
 10
93.0
 20
15.15410958917181
 30
0.0
 11
107.09999999999999
 21
-14.69999999999999
 31
0.0
  0
LINE
  5
597
  8
DATA
  6
CONTINUOUS
 62
     7
 10
107.09999999999999
 20
49.95000000018247
 30
0.0
 11
93.0
 21
55.678767123418389
 31
0.0
  0
LINE
  5
598
  8
DATA
  6
CONTINUOUS
 62
     7
 10
104.90000000000001
 20
48.643850189623528
 30
0.0
 11
94.500000000000014
 21
52.869323812435859
 31
0.0
  0
LINE
  5
599
  8
DATA
  6
CONTINUOUS
 62
     7
 10
104.90000000000001
 20
15.071917808349889
 30
0.0
 11
94.500000000000014
 21
17.066438356295102
 31
0.0
  0
LINE
  5
59A
  8
DATA
  6
CONTINUOUS
 62
     7
 10
107.09999999999999
 20
14.65000000013071
 30
0.0
 11
107.09999999999999
 21
47.750000000182467
 31
0.0
  0
LINE
  5
59B
  8
DATA
  6
CONTINUOUS
 62
     7
 10
104.90000000000001
 20
15.071917808349889
 30
0.0
 11
104.90000000000001
 21
48.643850189623528
 31
0.0
  0
LINE
  5
59C
  8
DATA
  6
CONTINUOUS
 62
     7
 10
93.0
 20
17.354109589171799
 30
0.0
 11
93.0
 21
53.478767123418393
 31
0.0
  0
LINE
  5
59D
  8
DATA
  6
CONTINUOUS
 62
     7
 10
94.500000000000014
 20
17.066438356295102
 30
0.0
 11
94.500000000000014
 21
52.869323812435859
 31
0.0
  0
LINE
  5
59E
  8
DATA
  6
CONTINUOUS
 62
     7
 10
11.00000000031838
 20
187.5
 30
0.0
 11
56.000000000300112
 21
187.5
 31
0.0
  0
LINE
  5
59F
  8
DATA
  6
CONTINUOUS
 62
     7
 10
0.0
 20
207.5
 30
0.0
 11
67.000000000618499
 21
207.5
 31
0.0
  0
LINE
  5
5A0
  8
DATA
  6
CONTINUOUS
 62
     7
 10
0.9200000000000015
 20
202.09999999999999
 30
0.0
 11
66.080000000618483
 21
202.09999999999999
 31
0.0
  0
LINE
  5
5A1
  8
DATA
  6
CONTINUOUS
 62
     7
 10
11.00000000031838
 20
187.5
 30
0.0
 11
3.9827586206972541
 21
202.09999999999999
 31
0.0
  0
LINE
  5
5A2
  8
DATA
  6
CONTINUOUS
 62
     7
 10
11.00000000031838
 20
187.5
 30
0.0
 11
11.00000000031838
 21
202.09999999999999
 31
0.0
  0
LINE
  5
5A3
  8
DATA
  6
CONTINUOUS
 62
     7
 10
56.000000000300112
 20
187.5
 30
0.0
 11
63.017241379921217
 21
202.09999999999999
 31
0.0
  0
LINE
  5
5A4
  8
DATA
  6
CONTINUOUS
 62
     7
 10
56.000000000300112
 20
187.5
 30
0.0
 11
56.000000000300112
 21
202.09999999999999
 31
0.0
  0
LINE
  5
5A5
  8
DATA
  6
CONTINUOUS
 62
     7
 10
0.3199999999999932
 20
203.0
 30
0.0
 11
66.680000000618492
 21
203.0
 31
0.0
  0
ARC
  5
5A6
  8
DATA
  6
CONTINUOUS
 62
     7
 10
33.500000000309242
 20
204.5488263005407
 30
0.0
 40
1.400000000000005
 50
179.9999999999994
 51
359.99999999999949
  0
LINE
  5
5A7
  8
DATA
  6
CONTINUOUS
 62
     7
 10
32.100000000309237
 20
204.5488263005407
 30
0.0
 11
32.100000000309237
 21
207.5
 31
0.0
  0
LINE
  5
5A8
  8
DATA
  6
CONTINUOUS
 62
     7
 10
34.900000000309248
 20
204.5488263005407
 30
0.0
 11
34.900000000309248
 21
207.5
 31
0.0
  0
LINE
  5
5A9
  8
DATA
  6
CONTINUOUS
 62
     7
 10
22.500000000318519
 20
187.5
 30
0.0
 11
22.500000000318519
 21
202.09999999999999
 31
0.0
  0
LINE
  5
5AA
  8
DATA
  6
CONTINUOUS
 62
     7
 10
24.50000000031854
 20
187.5
 30
0.0
 11
24.50000000031854
 21
202.09999999999999
 31
0.0
  0
LINE
  5
5AB
  8
DATA
  6
CONTINUOUS
 62
     7
 10
28.50000000031854
 20
187.5
 30
0.0
 11
28.50000000031854
 21
202.09999999999999
 31
0.0
  0
LINE
  5
5AC
  8
DATA
  6
CONTINUOUS
 62
     7
 10
30.50000000031854
 20
187.5
 30
0.0
 11
30.50000000031854
 21
202.09999999999999
 31
0.0
  0
LINE
  5
5AD
  8
DATA
  6
CONTINUOUS
 62
     7
 10
32.500000000318543
 20
187.5
 30
0.0
 11
32.500000000318543
 21
202.09999999999999
 31
0.0
  0
LINE
  5
5AE
  8
DATA
  6
CONTINUOUS
 62
     7
 10
34.500000000318543
 20
187.5
 30
0.0
 11
34.500000000318543
 21
202.09999999999999
 31
0.0
  0
LINE
  5
5AF
  8
DATA
  6
CONTINUOUS
 62
     7
 10
36.500000000318529
 20
187.5
 30
0.0
 11
36.500000000318529
 21
202.09999999999999
 31
0.0
  0
LINE
  5
5B0
  8
DATA
  6
CONTINUOUS
 62
     7
 10
38.500000000318529
 20
187.5
 30
0.0
 11
38.500000000318529
 21
202.09999999999999
 31
0.0
  0
LINE
  5
5B1
  8
DATA
  6
CONTINUOUS
 62
     7
 10
40.500000000318529
 20
187.5
 30
0.0
 11
40.500000000318529
 21
202.09999999999999
 31
0.0
  0
LINE
  5
5B2
  8
DATA
  6
CONTINUOUS
 62
     7
 10
42.500000000318522
 20
187.5
 30
0.0
 11
42.500000000318522
 21
202.09999999999999
 31
0.0
  0
LINE
  5
5B3
  8
DATA
  6
CONTINUOUS
 62
     7
 10
44.500000000318522
 20
187.5
 30
0.0
 11
44.500000000318522
 21
202.09999999999999
 31
0.0
  0
LINE
  5
5B4
  8
DATA
  6
CONTINUOUS
 62
     7
 10
26.50000000031854
 20
187.5
 30
0.0
 11
26.50000000031854
 21
202.09999999999999
 31
0.0
  0
LINE
  5
5B5
  8
DATA
  6
CONTINUOUS
 62
     7
 10
24.50000000031854
 20
189.5
 30
0.0
 11
26.50000000031854
 21
189.5
 31
0.0
  0
LINE
  5
5B6
  8
DATA
  6
CONTINUOUS
 62
     7
 10
28.50000000031854
 20
189.5
 30
0.0
 11
30.50000000031854
 21
189.5
 31
0.0
  0
LINE
  5
5B7
  8
DATA
  6
CONTINUOUS
 62
     7
 10
32.500000000318543
 20
189.5
 30
0.0
 11
34.500000000318543
 21
189.5
 31
0.0
  0
LINE
  5
5B8
  8
DATA
  6
CONTINUOUS
 62
     7
 10
36.500000000318529
 20
189.5
 30
0.0
 11
38.500000000318529
 21
189.5
 31
0.0
  0
LINE
  5
5B9
  8
DATA
  6
CONTINUOUS
 62
     7
 10
40.500000000318529
 20
189.5
 30
0.0
 11
42.500000000318522
 21
189.5
 31
0.0
  0
LINE
  5
5BA
  8
DATA
  6
CONTINUOUS
 62
     7
 10
113.3
 20
10.82224922794137
 30
0.0
 11
113.3
 21
15.82224922794131
 31
0.0
  0
LINE
  5
5BB
  8
DATA
  6
CONTINUOUS
 62
     7
 10
113.3
 20
49.822249227941398
 30
0.0
 11
113.3
 21
54.822249227941292
 31
0.0
  0
LINE
  5
5BC
  8
DATA
  6
CONTINUOUS
 62
     7
 10
14.500000000309241
 20
207.5
 30
0.0
 11
14.500000000309241
 21
207.80000000000001
 31
0.0
  0
LINE
  5
5BD
  8
DATA
  6
CONTINUOUS
 62
     7
 10
20.500000000309239
 20
207.80000000000001
 30
0.0
 11
20.500000000309239
 21
207.5
 31
0.0
  0
LINE
  5
5BE
  8
DATA
  6
CONTINUOUS
 62
     7
 10
15.000000000309241
 20
208.30000000000001
 30
0.0
 11
20.000000000309239
 21
208.30000000000001
 31
0.0
  0
LINE
  5
5BF
  8
DATA
  6
CONTINUOUS
 62
     7
 10
46.500000000309242
 20
207.5
 30
0.0
 11
46.500000000309242
 21
207.80000000000001
 31
0.0
  0
LINE
  5
5C0
  8
DATA
  6
CONTINUOUS
 62
     7
 10
52.500000000309228
 20
207.80000000000001
 30
0.0
 11
52.500000000309228
 21
207.5
 31
0.0
  0
LINE
  5
5C1
  8
DATA
  6
CONTINUOUS
 62
     7
 10
47.000000000309228
 20
208.30000000000001
 30
0.0
 11
52.000000000309228
 21
208.30000000000001
 31
0.0
  0
LINE
  5
5C2
  8
DATA
  6
CONTINUOUS
 62
     7
 10
0.0
 20
207.5
 30
0.0
 11
0.3199999999999932
 21
203.0
 31
0.0
  0
LINE
  5
5C3
  8
DATA
  6
CONTINUOUS
 62
     7
 10
0.3199999999999932
 20
203.0
 30
0.0
 11
0.9200000000000015
 21
202.09999999999999
 31
0.0
  0
LINE
  5
5C4
  8
DATA
  6
CONTINUOUS
 62
     7
 10
67.000000000618499
 20
207.5
 30
0.0
 11
66.680000000618492
 21
203.0
 31
0.0
  0
LINE
  5
5C5
  8
DATA
  6
CONTINUOUS
 62
     7
 10
66.680000000618492
 20
203.0
 30
0.0
 11
66.080000000618483
 21
202.09999999999999
 31
0.0
  0
LINE
  5
5C6
  8
DATA
  6
CONTINUOUS
 62
     7
 10
32.100000000309237
 20
78.200616415275007
 30
0.0
 11
32.100000000309237
 21
132.1282329101173
 31
0.0
  0
LINE
  5
5C7
  8
DATA
  6
CONTINUOUS
 62
     7
 10
34.900000000309227
 20
78.200616415275874
 30
0.0
 11
34.900000000309227
 21
129.32823291011729
 31
0.0
  0
LINE
  5
5C8
  8
DATA
  6
CONTINUOUS
 62
     7
 10
135.1147865048159
 20
132.73175972136559
 30
0.0
 11
135.1147865048159
 21
132.7247660988692
 31
0.0
  0
LINE
  5
5C9
  8
DATA
  6
CONTINUOUS
 62
     7
 10
135.1147865048159
 20
132.73175972136559
 30
0.0
 11
135.1147865048159
 21
138.72470609886901
 31
0.0
  0
LINE
  5
5CA
  8
DATA
  6
CONTINUOUS
 62
     7
 10
143.26665329179951
 20
141.18707016638211
 30
0.0
 11
142.99381767374959
 21
140.4374604665874
 31
0.0
  0
LINE
  5
5CB
  8
DATA
  6
CONTINUOUS
 62
     7
 10
143.26665329179951
 20
130.26240203132281
 30
0.0
 11
142.99381767374959
 21
131.0120117311175
 31
0.0
  0
LINE
  5
5CC
  8
DATA
  6
CONTINUOUS
 62
     7
 10
151.02120913573219
 20
131.75215663086109
 30
0.0
 11
151.0187388496353
 21
131.7559016050777
 31
0.0
  0
LINE
  5
5CD
  8
DATA
  6
CONTINUOUS
 62
     7
 10
151.1817134659729
 20
131.2304891226218
 30
0.0
 11
151.18171318585621
 21
131.23048966682109
 31
0.0
  0
LINE
  5
5CE
  8
DATA
  6
CONTINUOUS
 62
     7
 10
152.74127690481581
 20
142.35800309886901
 30
0.0
 11
152.74127690481581
 21
129.0914690988692
 31
0.0
  0
LINE
  5
5CF
  8
DATA
  6
CONTINUOUS
 62
     7
 10
154.7412569048158
 20
141.36923576720781
 30
0.0
 11
154.7412569048158
 21
142.491335098869
 31
0.0
  0
LINE
  5
5D0
  8
DATA
  6
CONTINUOUS
 62
     7
 10
154.87458890481579
 20
128.9581370988692
 30
0.0
 11
154.87458890481579
 21
130.19145809886919
 31
0.0
  0
LINE
  5
5D1
  8
DATA
  6
CONTINUOUS
 62
     7
 10
143.37475607639419
 20
130.175784806537
 30
0.0
 11
152.59075620550459
 21
128.97770478975701
 31
0.0
  0
LINE
  5
5D2
  8
DATA
  6
CONTINUOUS
 62
     7
 10
142.9938176738163
 20
131.0120117311175
 30
0.0
 11
135.5640382604534
 21
132.19810687248079
 31
0.0
  0
LINE
  5
5D3
  8
DATA
  6
CONTINUOUS
 62
     7
 10
155.94124490481579
 20
128.9581370988692
 30
0.0
 11
155.94124490481579
 21
130.19145809886919
 31
0.0
  0
LINE
  5
5D4
  8
DATA
  6
CONTINUOUS
 62
     7
 10
156.07457690481581
 20
142.491335098869
 30
0.0
 11
156.07457690481581
 21
141.36923576720781
 31
0.0
  0
LINE
  5
5D5
  8
DATA
  6
CONTINUOUS
 62
     7
 10
147.88415645030611
 20
138.1068551145739
 30
0.0
 11
147.89761362313311
 21
138.1111006612181
 31
0.0
  0
LINE
  5
5D6
  8
DATA
  6
CONTINUOUS
 62
     7
 10
162.8717167487043
 20
129.250079335251
 30
0.0
 11
164.3811605048158
 21
129.5247980988693
 31
0.0
  0
LINE
  5
5D7
  8
DATA
  6
CONTINUOUS
 62
     7
 10
161.20506674863759
 20
129.13341383521771
 30
0.0
 11
162.71451050481579
 21
129.4081325988692
 31
0.0
  0
LINE
  5
5D8
  8
DATA
  6
CONTINUOUS
 62
     7
 10
159.38121050481581
 20
128.98813679886931
 30
0.0
 11
161.04786050481579
 21
129.29146709886919
 31
0.0
  0
LINE
  5
5D9
  8
DATA
  6
CONTINUOUS
 62
     7
 10
158.73561919876011
 20
128.94724934948121
 30
0.0
 11
159.38121050481581
 21
128.98813679886931
 31
0.0
  0
LINE
  5
5DA
  8
DATA
  6
CONTINUOUS
 62
     7
 10
157.94122490481581
 20
128.9581370988692
 30
0.0
 11
155.94124490481579
 21
128.9581370988692
 31
0.0
  0
LINE
  5
5DB
  8
DATA
  6
CONTINUOUS
 62
     7
 10
154.87458890481579
 20
128.9581370988692
 30
0.0
 11
152.8746089048158
 21
128.9581370988692
 31
0.0
  0
LINE
  5
5DC
  8
DATA
  6
CONTINUOUS
 62
     7
 10
164.51449250481579
 20
129.39146609886919
 30
0.0
 11
181.51432250481579
 21
129.39146609886919
 31
0.0
  0
LINE
  5
5DD
  8
DATA
  6
CONTINUOUS
 62
     7
 10
158.07455690481581
 20
129.9581270988692
 30
0.0
 11
158.38122050481579
 21
129.9581270988692
 31
0.0
  0
LINE
  5
5DE
  8
DATA
  6
CONTINUOUS
 62
     7
 10
143.9620360827021
 20
130.4103531516968
 30
0.0
 11
143.96203620616751
 21
130.41035314402291
 31
0.0
  0
LINE
  5
5DF
  8
DATA
  6
CONTINUOUS
 62
     7
 10
147.8845253267173
 20
133.34250170285131
 30
0.0
 11
147.88415681970241
 21
133.342617866523
 31
0.0
  0
LINE
  5
5E0
  8
DATA
  6
CONTINUOUS
 62
     7
 10
158.07455690481581
 20
129.0914690988692
 30
0.0
 11
158.07455690481581
 21
142.35800309886901
 31
0.0
  0
LINE
  5
5E1
  8
DATA
  6
CONTINUOUS
 62
     7
 10
158.38122050481579
 20
142.15153832310409
 30
0.0
 11
158.38122050481579
 21
129.27991284167959
 31
0.0
  0
LINE
  5
5E2
  8
DATA
  6
CONTINUOUS
 62
     7
 10
158.38122050481579
 20
142.15153832310409
 30
0.0
 11
158.38122050481579
 21
142.16942454347341
 31
0.0
  0
LINE
  5
5E3
  8
DATA
  6
CONTINUOUS
 62
     7
 10
146.2585021060122
 20
133.81313423894551
 30
0.0
 11
146.2585020289014
 21
133.8131342038694
 31
0.0
  0
LINE
  5
5E4
  8
DATA
  6
CONTINUOUS
 62
     7
 10
146.25402384666191
 20
137.63513933157901
 30
0.0
 11
146.25401827239961
 21
137.6351417952821
 31
0.0
  0
LINE
  5
5E5
  8
DATA
  6
CONTINUOUS
 62
     7
 10
161.04786050481579
 20
129.26459099776631
 30
0.0
 11
161.04786050481579
 21
129.28265485372589
 31
0.0
  0
LINE
  5
5E6
  8
DATA
  6
CONTINUOUS
 62
     7
 10
161.04786050481579
 20
142.16681734401229
 30
0.0
 11
161.04786050481579
 21
142.18488119993859
 31
0.0
  0
LINE
  5
5E7
  8
DATA
  6
CONTINUOUS
 62
     7
 10
162.71451050481579
 20
142.05047806441681
 30
0.0
 11
162.71451050481579
 21
142.06821569957199
 31
0.0
  0
LINE
  5
5E8
  8
DATA
  6
CONTINUOUS
 62
     7
 10
158.07455690481581
 20
141.491345098869
 30
0.0
 11
158.38122050481579
 21
141.491345098869
 31
0.0
  0
LINE
  5
5E9
  8
DATA
  6
CONTINUOUS
 62
     7
 10
142.99381767378301
 20
140.4374604665874
 30
0.0
 11
135.5640382604534
 21
139.2513653252241
 31
0.0
  0
LINE
  5
5EA
  8
DATA
  6
CONTINUOUS
 62
     7
 10
164.51449250481579
 20
142.05800609886899
 30
0.0
 11
181.51432250481579
 21
142.05800609886899
 31
0.0
  0
LINE
  5
5EB
  8
DATA
  6
CONTINUOUS
 62
     7
 10
157.94122490481581
 20
142.491335098869
 30
0.0
 11
156.07457690481581
 21
142.491335098869
 31
0.0
  0
LINE
  5
5EC
  8
DATA
  6
CONTINUOUS
 62
     7
 10
154.7412569048158
 20
142.491335098869
 30
0.0
 11
152.8746089048158
 21
142.491335098869
 31
0.0
  0
LINE
  5
5ED
  8
DATA
  6
CONTINUOUS
 62
     7
 10
158.73561919876011
 20
142.50222284825711
 30
0.0
 11
159.38121050481581
 21
142.46133539886901
 31
0.0
  0
LINE
  5
5EE
  8
DATA
  6
CONTINUOUS
 62
     7
 10
159.38121050481581
 20
142.46133539886901
 30
0.0
 11
161.04786050481579
 21
142.15800509886901
 31
0.0
  0
LINE
  5
5EF
  8
DATA
  6
CONTINUOUS
 62
     7
 10
161.20506674863759
 20
142.31605836248721
 30
0.0
 11
162.71451050481579
 21
142.041339598869
 31
0.0
  0
LINE
  5
5F0
  8
DATA
  6
CONTINUOUS
 62
     7
 10
162.8717167487043
 20
142.1993928624872
 30
0.0
 11
164.3811605048158
 21
141.92467409886899
 31
0.0
  0
LINE
  5
5F1
  8
DATA
  6
CONTINUOUS
 62
     7
 10
152.59075620550459
 20
142.47176740794791
 30
0.0
 11
143.37475607639419
 21
141.27368739116781
 31
0.0
  0
LINE
  5
5F2
  8
DATA
  6
CONTINUOUS
 62
     7
 10
181.84765250481581
 20
129.72479609886921
 30
0.0
 11
181.84765250481581
 21
141.724676098869
 31
0.0
  0
ARC
  5
5F3
  8
DATA
  6
CONTINUOUS
 62
     7
 10
155.40791690481589
 20
130.19145809886919
 30
0.0
 40
0.5333279999999691
 50
0.0
 51
180.0
  0
ARC
  5
5F4
  8
DATA
  6
CONTINUOUS
 62
     7
 10
157.94122490481581
 20
129.0914690988692
 30
0.0
 40
0.1333319999999816
 50
270.0
 51
0.0
  0
ARC
  5
5F5
  8
DATA
  6
CONTINUOUS
 62
     7
 10
157.94122490481581
 20
142.35800309886901
 30
0.0
 40
0.1333319999999958
 50
0.0
 51
90.0
  0
ARC
  5
5F6
  8
DATA
  6
CONTINUOUS
 62
     7
 10
152.8746089048158
 20
129.0914690988692
 30
0.0
 40
0.1333319999999958
 50
180.0
 51
270.0
  0
ARC
  5
5F7
  8
DATA
  6
CONTINUOUS
 62
     7
 10
152.8746089048158
 20
142.35800309886901
 30
0.0
 40
0.1333319999999958
 50
90.0
 51
180.0
  0
ARC
  5
5F8
  8
DATA
  6
CONTINUOUS
 62
     7
 10
135.64811450481591
 20
132.7247660988692
 30
0.0
 40
0.5333280000000116
 50
180.0
 51
260.92979705920038
  0
ARC
  5
5F9
  8
DATA
  6
CONTINUOUS
 62
     7
 10
135.64811450481591
 20
138.72470609886901
 30
0.0
 40
0.5333280000000175
 50
99.070202940799433
 51
180.0
  0
ARC
  5
5FA
  8
DATA
  6
CONTINUOUS
 62
     7
 10
152.60794490481589
 20
142.33954680443381
 30
0.0
 40
0.1333319999999816
 50
0.0000000026991729
 51
97.406920574103495
  0
ARC
  5
5FB
  8
DATA
  6
CONTINUOUS
 62
     7
 10
152.60794490481589
 20
129.10992539330439
 30
0.0
 40
0.1333320000000044
 50
262.59307942589572
 51
359.99999999730079
  0
ARC
  5
5FC
  8
DATA
  6
CONTINUOUS
 62
     7
 10
143.39194456647419
 20
141.1414682385392
 30
0.0
 40
0.1333319884001211
 50
97.407004770704276
 51
160.0001481009904
  0
ARC
  5
5FD
  8
DATA
  6
CONTINUOUS
 62
     7
 10
143.39194456647419
 20
130.3080039591656
 30
0.0
 40
0.1333319884001147
 50
199.999851898998
 51
262.59299522939409
  0
ARC
  5
5FE
  8
DATA
  6
CONTINUOUS
 62
     7
 10
158.7145505048158
 20
142.16955935605861
 30
0.0
 40
0.333330000000008
 50
86.376106355803273
 51
180.0
  0
ARC
  5
5FF
  8
DATA
  6
CONTINUOUS
 62
     7
 10
158.7145505048158
 20
129.27991284167959
 30
0.0
 40
0.3333300000000179
 50
180.0
 51
273.62389364419693
  0
ARC
  5
600
  8
DATA
  6
CONTINUOUS
 62
     7
 10
161.18119250481581
 20
129.26459097769981
 30
0.0
 40
0.1333319999999958
 50
180.0
 51
280.3149318397966
  0
ARC
  5
601
  8
DATA
  6
CONTINUOUS
 62
     7
 10
161.18119250481581
 20
142.18488122000511
 30
0.0
 40
0.1333320000000018
 50
79.685068160203272
 51
180.0
  0
ARC
  5
602
  8
DATA
  6
CONTINUOUS
 62
     7
 10
162.84784250481579
 20
129.38125647769979
 30
0.0
 40
0.1333319999999958
 50
180.0
 51
280.31493187110721
  0
ARC
  5
603
  8
DATA
  6
CONTINUOUS
 62
     7
 10
162.84784250481579
 20
142.0682157200051
 30
0.0
 40
0.1333320000000298
 50
79.685068128897157
 51
180.0
  0
ARC
  5
604
  8
DATA
  6
CONTINUOUS
 62
     7
 10
164.51449250481579
 20
129.5247980988693
 30
0.0
 40
0.1333319999999958
 50
180.0
 51
270.0
  0
ARC
  5
605
  8
DATA
  6
CONTINUOUS
 62
     7
 10
164.51449250481579
 20
141.92467409886899
 30
0.0
 40
0.1333319999999958
 50
90.0
 51
180.0
  0
ARC
  5
606
  8
DATA
  6
CONTINUOUS
 62
     7
 10
181.51432250481579
 20
141.724676098869
 30
0.0
 40
0.3333299999999895
 50
0.0
 51
90.0
  0
ARC
  5
607
  8
DATA
  6
CONTINUOUS
 62
     7
 10
181.51432250481579
 20
129.72479609886921
 30
0.0
 40
0.3333299999999753
 50
270.0
 51
0.0
  0
POLYLINE
  5
608
  8
DATA
  6
CONTINUOUS
 62
     7
 66
     1
 10
0.0
 20
0.0
 30
0.0
 70
   128
  0
VERTEX
  5
F9D
  8
DATA
  6
CONTINUOUS
 62
     7
 10
156.07457690481581
 20
141.36923576720781
 30
0.0
  0
VERTEX
  5
F9E
  8
DATA
  6
CONTINUOUS
 62
     7
 10
156.07457196025049
 20
141.36542705051599
 30
0.0
 42
-0.0151592404760132
  0
VERTEX
  5
F9F
  8
DATA
  6
CONTINUOUS
 62
     7
 10
156.0734265461696
 20
141.32920832989291
 30
0.0
  0
VERTEX
  5
FA0
  8
DATA
  6
CONTINUOUS
 62
     7
 10
156.0732501650354
 20
141.3263639242362
 30
0.0
 42
-0.0109821672445206
  0
VERTEX
  5
FA1
  8
DATA
  6
CONTINUOUS
 62
     7
 10
156.07069051238599
 20
141.29592497797219
 30
0.0
 42
-0.0109849123209844
  0
VERTEX
  5
FA2
  8
DATA
  6
CONTINUOUS
 62
     7
 10
156.0667957520379
 20
141.26562348408461
 30
0.0
  0
VERTEX
  5
FA3
  8
DATA
  6
CONTINUOUS
 62
     7
 10
156.06677152499481
 20
141.26546296817509
 30
0.0
 42
-0.0110287380327335
  0
VERTEX
  5
FA4
  8
DATA
  6
CONTINUOUS
 62
     7
 10
156.06160169683309
 20
141.2356777778669
 30
0.0
  0
VERTEX
  5
FA5
  8
DATA
  6
CONTINUOUS
 62
     7
 10
156.06154855348331
 20
141.2354071664775
 30
0.0
 42
-0.0108482017830073
  0
VERTEX
  5
FA6
  8
DATA
  6
CONTINUOUS
 62
     7
 10
156.0551988468109
 20
141.20641502819399
 30
0.0
  0
VERTEX
  5
FA7
  8
DATA
  6
CONTINUOUS
 62
     7
 10
156.0551719713614
 20
141.2063039097859
 30
0.0
 42
-0.0106725275191973
  0
VERTEX
  5
FA8
  8
DATA
  6
CONTINUOUS
 62
     7
 10
156.04763912546761
 20
141.17783259765841
 30
0.0
 42
-0.0106698090002442
  0
VERTEX
  5
FA9
  8
DATA
  6
CONTINUOUS
 62
     7
 10
156.03889915346559
 20
141.14971111850051
 30
0.0
 42
-0.0106811225037682
  0
VERTEX
  5
FAA
  8
DATA
  6
CONTINUOUS
 62
     7
 10
156.02896806432321
 20
141.1219919609519
 30
0.0
  0
VERTEX
  5
FAB
  8
DATA
  6
CONTINUOUS
 62
     7
 10
156.0289176142621
 20
141.1218600889199
 30
0.0
 42
-0.0107153111970454
  0
VERTEX
  5
FAC
  8
DATA
  6
CONTINUOUS
 62
     7
 10
156.01791681419721
 20
141.0948537524655
 30
0.0
  0
VERTEX
  5
FAD
  8
DATA
  6
CONTINUOUS
 62
     7
 10
156.01784535853369
 20
141.09468855651841
 30
0.0
 42
-0.0105315634905243
  0
VERTEX
  5
FAE
  8
DATA
  6
CONTINUOUS
 62
     7
 10
156.00585698632511
 20
141.0685009336386
 30
0.0
  0
VERTEX
  5
FAF
  8
DATA
  6
CONTINUOUS
 62
     7
 10
156.00584008124491
 20
141.06846597082239
 30
0.0
 42
-0.0104675484272859
  0
VERTEX
  5
FB0
  8
DATA
  6
CONTINUOUS
 62
     7
 10
155.99279803318731
 20
141.04287388065021
 30
0.0
 42
-0.0104821400020114
  0
VERTEX
  5
FB1
  8
DATA
  6
CONTINUOUS
 62
     7
 10
155.97869537340819
 20
141.01785033550919
 30
0.0
 42
-0.0105138141266687
  0
VERTEX
  5
FB2
  8
DATA
  6
CONTINUOUS
 62
     7
 10
155.963554628168
 20
140.99344072074791
 30
0.0
  0
VERTEX
  5
FB3
  8
DATA
  6
CONTINUOUS
 62
     7
 10
155.96347317233949
 20
140.99331536241789
 30
0.0
 42
-0.0105750634166753
  0
VERTEX
  5
FB4
  8
DATA
  6
CONTINUOUS
 62
     7
 10
155.94748490216011
 20
140.96981310788709
 30
0.0
  0
VERTEX
  5
FB5
  8
DATA
  6
CONTINUOUS
 62
     7
 10
155.9473954548366
 20
140.9696874231457
 30
0.0
 42
-0.0103789971599543
  0
VERTEX
  5
FB6
  8
DATA
  6
CONTINUOUS
 62
     7
 10
155.93062050503491
 20
140.9471229816881
 30
0.0
 42
-0.010370566520368
  0
VERTEX
  5
FB7
  8
DATA
  6
CONTINUOUS
 62
     7
 10
155.91292723763061
 20
140.92527768086239
 30
0.0
 42
-0.0103864857518018
  0
VERTEX
  5
FB8
  8
DATA
  6
CONTINUOUS
 62
     7
 10
155.8943462022967
 20
140.90418953051849
 30
0.0
  0
VERTEX
  5
FB9
  8
DATA
  6
CONTINUOUS
 62
     7
 10
155.894329424017
 20
140.90417126755091
 30
0.0
 42
-0.0104200644903734
  0
VERTEX
  5
FBA
  8
DATA
  6
CONTINUOUS
 62
     7
 10
155.8749217671037
 20
140.8839104068129
 30
0.0
  0
VERTEX
  5
FBB
  8
DATA
  6
CONTINUOUS
 62
     7
 10
155.87481045551141
 20
140.88379894693361
 30
0.0
 42
-0.0104427437303194
  0
VERTEX
  5
FBC
  8
DATA
  6
CONTINUOUS
 62
     7
 10
155.85480176808059
 20
140.86458344471421
 30
0.0
  0
VERTEX
  5
FBD
  8
DATA
  6
CONTINUOUS
 62
     7
 10
155.8547040822944
 20
140.86449347656671
 30
0.0
 42
-0.0102544343531341
  0
VERTEX
  5
FBE
  8
DATA
  6
CONTINUOUS
 62
     7
 10
155.83411619223921
 20
140.84629812614739
 30
0.0
 42
-0.0102547192816985
  0
VERTEX
  5
FBF
  8
DATA
  6
CONTINUOUS
 62
     7
 10
155.8127995914642
 20
140.82896235350711
 30
0.0
 42
-0.0102747069218107
  0
VERTEX
  5
FC0
  8
DATA
  6
CONTINUOUS
 62
     7
 10
155.79078971349571
 20
140.81251637458189
 30
0.0
  0
VERTEX
  5
FC1
  8
DATA
  6
CONTINUOUS
 62
     7
 10
155.7907227678989
 20
140.81246846380111
 30
0.0
 42
-0.0103122771073537
  0
VERTEX
  5
FC2
  8
DATA
  6
CONTINUOUS
 62
     7
 10
155.7681906788396
 20
140.79703556482841
 30
0.0
  0
VERTEX
  5
FC3
  8
DATA
  6
CONTINUOUS
 62
     7
 10
155.7679908286471
 20
140.7969046532404
 30
0.0
 42
-0.0102438426624502
  0
VERTEX
  5
FC4
  8
DATA
  6
CONTINUOUS
 62
     7
 10
155.74524832760471
 20
140.78266433126441
 30
0.0
  0
VERTEX
  5
FC5
  8
DATA
  6
CONTINUOUS
 62
     7
 10
155.74511375838441
 20
140.78258385985961
 30
0.0
 42
-0.01000457495626
  0
VERTEX
  5
FC6
  8
DATA
  6
CONTINUOUS
 62
     7
 10
155.7220854159325
 20
140.76943129447821
 30
0.0
 42
-0.0100033600264317
  0
VERTEX
  5
FC7
  8
DATA
  6
CONTINUOUS
 62
     7
 10
155.69854963819611
 20
140.75721061341011
 30
0.0
 42
-0.0100191246143547
  0
VERTEX
  5
FC8
  8
DATA
  6
CONTINUOUS
 62
     7
 10
155.67454420656799
 20
140.74594224810909
 30
0.0
  0
VERTEX
  5
FC9
  8
DATA
  6
CONTINUOUS
 62
     7
 10
155.67436597214419
 20
140.7458629015527
 30
0.0
 42
-0.0100539699259845
  0
VERTEX
  5
FCA
  8
DATA
  6
CONTINUOUS
 62
     7
 10
155.65028759314569
 20
140.7357187000413
 30
0.0
 42
-0.0098009404523159
  0
VERTEX
  5
FCB
  8
DATA
  6
CONTINUOUS
 62
     7
 10
155.62582524351339
 20
140.72653826820149
 30
0.0
  0
VERTEX
  5
FCC
  8
DATA
  6
CONTINUOUS
 62
     7
 10
155.62009351750501
 20
140.7245144715074
 30
0.0
 42
-0.0190463450508679
  0
VERTEX
  5
FCD
  8
DATA
  6
CONTINUOUS
 62
     7
 10
155.58422419277329
 20
140.713366339044
 30
0.0
  0
VERTEX
  5
FCE
  8
DATA
  6
CONTINUOUS
 62
     7
 10
155.57817261173579
 20
140.71173543687141
 30
0.0
 42
-0.0095369396577979
  0
VERTEX
  5
FCF
  8
DATA
  6
CONTINUOUS
 62
     7
 10
155.55386611428531
 20
140.70567962503961
 30
0.0
  0
VERTEX
  5
FD0
  8
DATA
  6
CONTINUOUS
 62
     7
 10
155.5536581730519
 20
140.7056320106791
 30
0.0
 42
-0.0095667051662077
  0
VERTEX
  5
FD1
  8
DATA
  6
CONTINUOUS
 62
     7
 10
155.52955568048529
 20
140.7005962940294
 30
0.0
 42
-0.0092659283843995
  0
VERTEX
  5
FD2
  8
DATA
  6
CONTINUOUS
 62
     7
 10
155.50528038548379
 20
140.69647168738811
 30
0.0
  0
VERTEX
  5
FD3
  8
DATA
  6
CONTINUOUS
 62
     7
 10
155.49958299148011
 20
140.69561194491681
 30
0.0
 42
-0.0182268881939004
  0
VERTEX
  5
FD4
  8
DATA
  6
CONTINUOUS
 62
     7
 10
155.46402996814771
 20
140.6915656961551
 30
0.0
 42
-0.009121693968187
  0
VERTEX
  5
FD5
  8
DATA
  6
CONTINUOUS
 62
     7
 10
155.4282934831385
 20
140.6894680242562
 30
0.0
 42
-0.0182823542293869
  0
VERTEX
  5
FD6
  8
DATA
  6
CONTINUOUS
 62
     7
 10
155.39252365774951
 20
140.6893305583701
 30
0.0
 42
-0.0091188541100051
  0
VERTEX
  5
FD7
  8
DATA
  6
CONTINUOUS
 62
     7
 10
155.35679221817699
 20
140.69115272930529
 30
0.0
 42
-0.0182123884405598
  0
VERTEX
  5
FD8
  8
DATA
  6
CONTINUOUS
 62
     7
 10
155.32123393604789
 20
140.69492206747819
 30
0.0
  0
VERTEX
  5
FD9
  8
DATA
  6
CONTINUOUS
 62
     7
 10
155.31559876890501
 20
140.69572786075901
 30
0.0
 42
-0.0091725048113895
  0
VERTEX
  5
FDA
  8
DATA
  6
CONTINUOUS
 62
     7
 10
155.29141945466341
 20
140.69963921814599
 30
0.0
 42
-0.0095669208284584
  0
VERTEX
  5
FDB
  8
DATA
  6
CONTINUOUS
 62
     7
 10
155.26740402892651
 20
140.70445373202239
 30
0.0
  0
VERTEX
  5
FDC
  8
DATA
  6
CONTINUOUS
 62
     7
 10
155.26714085393371
 20
140.70451175084639
 30
0.0
 42
-0.0095360262075664
  0
VERTEX
  5
FDD
  8
DATA
  6
CONTINUOUS
 62
     7
 10
155.2428024294978
 20
140.71036619342451
 30
0.0
 42
-0.009521429611181
  0
VERTEX
  5
FDE
  8
DATA
  6
CONTINUOUS
 62
     7
 10
155.2187038954157
 20
140.7171440491777
 30
0.0
 42
-0.0095212449271362
  0
VERTEX
  5
FDF
  8
DATA
  6
CONTINUOUS
 62
     7
 10
155.1948804909118
 20
140.72483467453441
 30
0.0
  0
VERTEX
  5
FE0
  8
DATA
  6
CONTINUOUS
 62
     7
 10
155.19477928833399
 20
140.7248694858925
 30
0.0
 42
-0.0096981962073475
  0
VERTEX
  5
FE1
  8
DATA
  6
CONTINUOUS
 62
     7
 10
155.17106819878151
 20
140.73354338489179
 30
0.0
  0
VERTEX
  5
FE2
  8
DATA
  6
CONTINUOUS
 62
     7
 10
155.17071428579709
 20
140.73368069160389
 30
0.0
 42
-0.0100779384111671
  0
VERTEX
  5
FE3
  8
DATA
  6
CONTINUOUS
 62
     7
 10
155.14666305660219
 20
140.74357397973989
 30
0.0
  0
VERTEX
  5
FE4
  8
DATA
  6
CONTINUOUS
 62
     7
 10
155.14641271865989
 20
140.74368290379749
 30
0.0
 42
-0.0100391953820836
  0
VERTEX
  5
FE5
  8
DATA
  6
CONTINUOUS
 62
     7
 10
155.12228230624839
 20
140.75476362489761
 30
0.0
 42
-0.0100189090051538
  0
VERTEX
  5
FE6
  8
DATA
  6
CONTINUOUS
 62
     7
 10
155.0986149141948
 20
140.76680357084129
 30
0.0
 42
-0.0100168191276021
  0
VERTEX
  5
FE7
  8
DATA
  6
CONTINUOUS
 62
     7
 10
155.07544851190369
 20
140.77978213352881
 30
0.0
  0
VERTEX
  5
FE8
  8
DATA
  6
CONTINUOUS
 62
     7
 10
155.07535200167439
 20
140.77983877103841
 30
0.0
 42
-0.010191706746416
  0
VERTEX
  5
FE9
  8
DATA
  6
CONTINUOUS
 62
     7
 10
155.052538439561
 20
140.7938598292167
 30
0.0
  0
VERTEX
  5
FEA
  8
DATA
  6
CONTINUOUS
 62
     7
 10
155.05233787378199
 20
140.793988800054
 30
0.0
 42
-0.0103331969834884
  0
VERTEX
  5
FEB
  8
DATA
  6
CONTINUOUS
 62
     7
 10
155.0297234067483
 20
140.80920027587621
 30
0.0
  0
VERTEX
  5
FEC
  8
DATA
  6
CONTINUOUS
 62
     7
 10
155.02961965722361
 20
140.80927322080859
 30
0.0
 42
-0.0102912716975988
  0
VERTEX
  5
FED
  8
DATA
  6
CONTINUOUS
 62
     7
 10
155.00744702010789
 20
140.82555458077411
 30
0.0
 42
-0.0102681255565086
  0
VERTEX
  5
FEE
  8
DATA
  6
CONTINUOUS
 62
     7
 10
154.9859620414243
 20
140.8427338816627
 30
0.0
 42
-0.0102660101158728
  0
VERTEX
  5
FEF
  8
DATA
  6
CONTINUOUS
 62
     7
 10
154.96520037215959
 20
140.86078086253269
 30
0.0
  0
VERTEX
  5
FF0
  8
DATA
  6
CONTINUOUS
 62
     7
 10
154.96512419932341
 20
140.8608498713044
 30
0.0
 42
-0.010414253082163
  0
VERTEX
  5
FF1
  8
DATA
  6
CONTINUOUS
 62
     7
 10
154.94497719471229
 20
140.87988087118859
 30
0.0
  0
VERTEX
  5
FF2
  8
DATA
  6
CONTINUOUS
 62
     7
 10
154.94486559036261
 20
140.87999078091411
 30
0.0
 42
-0.0104400704681886
  0
VERTEX
  5
FF3
  8
DATA
  6
CONTINUOUS
 62
     7
 10
154.9253111020943
 20
140.90006962275481
 30
0.0
  0
VERTEX
  5
FF4
  8
DATA
  6
CONTINUOUS
 62
     7
 10
154.92527422486381
 20
140.90010910553869
 30
0.0
 42
-0.0104012645908039
  0
VERTEX
  5
FF5
  8
DATA
  6
CONTINUOUS
 62
     7
 10
154.9065010733928
 20
140.92106607201839
 30
0.0
 42
-0.0103806423044252
  0
VERTEX
  5
FF6
  8
DATA
  6
CONTINUOUS
 62
     7
 10
154.88861451442881
 20
140.94278546232971
 30
0.0
 42
-0.0103835082559575
  0
VERTEX
  5
FF7
  8
DATA
  6
CONTINUOUS
 62
     7
 10
154.87164488514551
 20
140.96522890895099
 30
0.0
  0
VERTEX
  5
FF8
  8
DATA
  6
CONTINUOUS
 62
     7
 10
154.871568726969
 20
140.9653341044623
 30
0.0
 42
-0.0105566995754372
  0
VERTEX
  5
FF9
  8
DATA
  6
CONTINUOUS
 62
     7
 10
154.8554059166101
 20
140.9886816785789
 30
0.0
  0
VERTEX
  5
FFA
  8
DATA
  6
CONTINUOUS
 62
     7
 10
154.85532104405661
 20
140.9888099848273
 30
0.0
 42
-0.0105340278672029
  0
VERTEX
  5
FFB
  8
DATA
  6
CONTINUOUS
 62
     7
 10
154.83999283593911
 20
141.01307843272369
 30
0.0
  0
VERTEX
  5
FFC
  8
DATA
  6
CONTINUOUS
 62
     7
 10
154.83998039180599
 20
141.01309908614459
 30
0.0
 42
-0.0104973239194894
  0
VERTEX
  5
FFD
  8
DATA
  6
CONTINUOUS
 62
     7
 10
154.82566224959751
 20
141.03803229082069
 30
0.0
 42
-0.0104778050027939
  0
VERTEX
  5
FFE
  8
DATA
  6
CONTINUOUS
 62
     7
 10
154.81240032676371
 20
141.06354827518271
 30
0.0
 42
-0.0104944216704681
  0
VERTEX
  5
FFF
  8
DATA
  6
CONTINUOUS
 62
     7
 10
154.80021791861489
 20
141.0896022834944
 30
0.0
  0
VERTEX
  5
1000
  8
DATA
  6
CONTINUOUS
 62
     7
 10
154.80014692809721
 20
141.08976280437651
 30
0.0
 42
-0.01072514088633
  0
VERTEX
  5
1001
  8
DATA
  6
CONTINUOUS
 62
     7
 10
154.78894590088441
 20
141.11663387010239
 30
0.0
  0
VERTEX
  5
1002
  8
DATA
  6
CONTINUOUS
 62
     7
 10
154.78888365088389
 20
141.116792717213
 30
0.0
 42
-0.0106887751603623
  0
VERTEX
  5
1003
  8
DATA
  6
CONTINUOUS
 62
     7
 10
154.7787253695322
 20
141.14443985072739
 30
0.0
 42
-0.0106703184746466
  0
VERTEX
  5
1004
  8
DATA
  6
CONTINUOUS
 62
     7
 10
154.76975669040709
 20
141.17249648409771
 30
0.0
  0
VERTEX
  5
1005
  8
DATA
  6
CONTINUOUS
 62
     7
 10
154.76870848285381
 20
141.1760341545004
 30
0.0
 42
-0.0160185540929078
  0
VERTEX
  5
1006
  8
DATA
  6
CONTINUOUS
 62
     7
 10
154.75938372867159
 20
141.21165636262771
 30
0.0
  0
VERTEX
  5
1007
  8
DATA
  6
CONTINUOUS
 62
     7
 10
154.75836978894571
 20
141.21610714279529
 30
0.0
 42
-0.0123359006118176
  0
VERTEX
  5
1008
  8
DATA
  6
CONTINUOUS
 62
     7
 10
154.75197138661289
 20
141.24778230687519
 30
0.0
  0
VERTEX
  5
1009
  8
DATA
  6
CONTINUOUS
 62
     7
 10
154.75181838716671
 20
141.2486494267138
 30
0.0
 42
-0.0110054031965092
  0
VERTEX
  5
100A
  8
DATA
  6
CONTINUOUS
 62
     7
 10
154.74717241672079
 20
141.27885050919639
 30
0.0
 42
-0.0109889135353148
  0
VERTEX
  5
100B
  8
DATA
  6
CONTINUOUS
 62
     7
 10
154.74385940540469
 20
141.30921982640839
 30
0.0
  0
VERTEX
  5
100C
  8
DATA
  6
CONTINUOUS
 62
     7
 10
154.74381704819419
 20
141.30970724060791
 30
0.0
 42
-0.0110012986063174
  0
VERTEX
  5
100D
  8
DATA
  6
CONTINUOUS
 62
     7
 10
154.74190608993919
 20
141.33920974134119
 30
0.0
  0
VERTEX
  5
100E
  8
DATA
  6
CONTINUOUS
 62
     7
 10
154.7418854059388
 20
141.3396940690352
 30
0.0
 42
-0.0103594581507975
  0
VERTEX
  5
100F
  8
DATA
  6
CONTINUOUS
 62
     7
 10
154.7412574206864
 20
141.3682829780856
 30
0.0
  0
VERTEX
  5
1010
  8
DATA
  6
CONTINUOUS
 62
     7
 10
154.7412569048158
 20
141.36923576720781
 30
0.0
  0
SEQEND
  5
1011
  8
DATA
  6
CONTINUOUS
 62
     7
  0
POLYLINE
  5
67E
  8
DATA
  6
CONTINUOUS
 62
     7
 66
     1
 10
0.0
 20
0.0
 30
0.0
 70
   128
  0
VERTEX
  5
1012
  8
DATA
  6
CONTINUOUS
 62
     7
 10
142.99382532680639
 20
135.72921596053661
 30
0.0
  0
VERTEX
  5
1013
  8
DATA
  6
CONTINUOUS
 62
     7
 10
142.99390217287859
 20
135.7368174172129
 30
0.0
 42
-0.0153322307675638
  0
VERTEX
  5
1014
  8
DATA
  6
CONTINUOUS
 62
     7
 10
142.9967733514921
 20
135.807200295554
 30
0.0
  0
VERTEX
  5
1015
  8
DATA
  6
CONTINUOUS
 62
     7
 10
142.9974435027311
 20
135.81656584761609
 30
0.0
 42
-0.0109344848539856
  0
VERTEX
  5
1016
  8
DATA
  6
CONTINUOUS
 62
     7
 10
143.00225861608121
 20
135.8680242438256
 30
0.0
 42
-0.009119021468302
  0
VERTEX
  5
1017
  8
DATA
  6
CONTINUOUS
 62
     7
 10
143.00913357653681
 20
135.91925192962429
 30
0.0
  0
VERTEX
  5
1018
  8
DATA
  6
CONTINUOUS
 62
     7
 10
143.00919658264641
 20
135.91966422569689
 30
0.0
 42
-0.0118930380436703
  0
VERTEX
  5
1019
  8
DATA
  6
CONTINUOUS
 62
     7
 10
143.0183620501582
 20
135.97137306604091
 30
0.0
  0
VERTEX
  5
101A
  8
DATA
  6
CONTINUOUS
 62
     7
 10
143.01897805046511
 20
135.97442420042881
 30
0.0
 42
-0.0119403557063149
  0
VERTEX
  5
101B
  8
DATA
  6
CONTINUOUS
 62
     7
 10
143.0315596364068
 20
136.02988137228871
 30
0.0
 42
-0.0121010114406943
  0
VERTEX
  5
101C
  8
DATA
  6
CONTINUOUS
 62
     7
 10
143.04678653755241
 20
136.08465300597831
 30
0.0
 42
-0.0121445536649427
  0
VERTEX
  5
101D
  8
DATA
  6
CONTINUOUS
 62
     7
 10
143.06464414189111
 20
136.1386038972837
 30
0.0
 42
-0.0123281722039258
  0
VERTEX
  5
101E
  8
DATA
  6
CONTINUOUS
 62
     7
 10
143.08511891810909
 20
136.19161417443729
 30
0.0
  0
VERTEX
  5
101F
  8
DATA
  6
CONTINUOUS
 62
     7
 10
143.0869972742567
 20
136.1961419365137
 30
0.0
 42
-0.0165135192754892
  0
VERTEX
  5
1020
  8
DATA
  6
CONTINUOUS
 62
     7
 10
143.11454501382971
 20
136.25680289803711
 30
0.0
  0
VERTEX
  5
1021
  8
DATA
  6
CONTINUOUS
 62
     7
 10
143.1167142925211
 20
136.26118897980669
 30
0.0
 42
-0.0117003998414451
  0
VERTEX
  5
1022
  8
DATA
  6
CONTINUOUS
 62
     7
 10
143.14311137216589
 20
136.3115600505308
 30
0.0
  0
VERTEX
  5
1023
  8
DATA
  6
CONTINUOUS
 62
     7
 10
143.14314223639849
 20
136.31161573658341
 30
0.0
 42
-0.011516103805369
  0
VERTEX
  5
1024
  8
DATA
  6
CONTINUOUS
 62
     7
 10
143.17178478812659
 20
136.36059784915389
 30
0.0
  0
VERTEX
  5
1025
  8
DATA
  6
CONTINUOUS
 62
     7
 10
143.17185452574
 20
136.36071104315241
 30
0.0
 42
-0.0114221803577364
  0
VERTEX
  5
1026
  8
DATA
  6
CONTINUOUS
 62
     7
 10
143.202568749482
 20
136.40810524066691
 30
0.0
 42
-0.0110871429731659
  0
VERTEX
  5
1027
  8
DATA
  6
CONTINUOUS
 62
     7
 10
143.2353851641054
 20
136.45406992979929
 30
0.0
  0
VERTEX
  5
1028
  8
DATA
  6
CONTINUOUS
 62
     7
 10
143.23544801818809
 20
136.4541539629013
 30
0.0
 42
-0.010960630530004
  0
VERTEX
  5
1029
  8
DATA
  6
CONTINUOUS
 62
     7
 10
143.2703881603376
 20
136.49879292421079
 30
0.0
  0
VERTEX
  5
102A
  8
DATA
  6
CONTINUOUS
 62
     7
 10
143.2705595386293
 20
136.499002253827
 30
0.0
 42
-0.0108518159522287
  0
VERTEX
  5
102B
  8
DATA
  6
CONTINUOUS
 62
     7
 10
143.3077649693237
 20
136.542486262289
 30
0.0
  0
VERTEX
  5
102C
  8
DATA
  6
CONTINUOUS
 62
     7
 10
143.30905213257191
 20
136.54392617117091
 30
0.0
 42
-0.0118779805626206
  0
VERTEX
  5
102D
  8
DATA
  6
CONTINUOUS
 62
     7
 10
143.3508345603725
 20
136.58848968753091
 30
0.0
  0
VERTEX
  5
102E
  8
DATA
  6
CONTINUOUS
 62
     7
 10
143.35103695024091
 20
136.58869552401441
 30
0.0
 42
-0.010293106130482
  0
VERTEX
  5
102F
  8
DATA
  6
CONTINUOUS
 62
     7
 10
143.3951697775652
 20
136.63176936753331
 30
0.0
  0
VERTEX
  5
1030
  8
DATA
  6
CONTINUOUS
 62
     7
 10
143.39573936962151
 20
136.63230284513361
 30
0.0
 42
-0.0112756350549006
  0
VERTEX
  5
1031
  8
DATA
  6
CONTINUOUS
 62
     7
 10
143.4428493024096
 20
136.67447249592689
 30
0.0
  0
VERTEX
  5
1032
  8
DATA
  6
CONTINUOUS
 62
     7
 10
143.4463041125461
 20
136.677427432808
 30
0.0
 42
-0.0118600399310654
  0
VERTEX
  5
1033
  8
DATA
  6
CONTINUOUS
 62
     7
 10
143.50235862211281
 20
136.72311462896039
 30
0.0
  0
VERTEX
  5
1034
  8
DATA
  6
CONTINUOUS
 62
     7
 10
143.504235465975
 20
136.7245716516959
 30
0.0
 42
-0.0111677377880587
  0
VERTEX
  5
1035
  8
DATA
  6
CONTINUOUS
 62
     7
 10
143.56615258487651
 20
136.77045996802721
 30
0.0
  0
VERTEX
  5
1036
  8
DATA
  6
CONTINUOUS
 62
     7
 10
143.5702773417915
 20
136.7733765035052
 30
0.0
 42
-0.0127889172296777
  0
VERTEX
  5
1037
  8
DATA
  6
CONTINUOUS
 62
     7
 10
143.64270939179681
 20
136.82186181194709
 30
0.0
  0
VERTEX
  5
1038
  8
DATA
  6
CONTINUOUS
 62
     7
 10
143.6538642925224
 20
136.82892251886949
 30
0.0
 42
-0.0099199883303328
  0
VERTEX
  5
1039
  8
DATA
  6
CONTINUOUS
 62
     7
 10
143.71141471908939
 20
136.86377057807209
 30
0.0
 42
-0.0055654319880099
  0
VERTEX
  5
103A
  8
DATA
  6
CONTINUOUS
 62
     7
 10
143.77002452656899
 20
136.8968243277817
 30
0.0
  0
VERTEX
  5
103B
  8
DATA
  6
CONTINUOUS
 62
     7
 10
143.77384102855811
 20
136.89892104821081
 30
0.0
 42
-0.009732964753891
  0
VERTEX
  5
103C
  8
DATA
  6
CONTINUOUS
 62
     7
 10
143.84113868192321
 20
136.93420570529031
 30
0.0
  0
VERTEX
  5
103D
  8
DATA
  6
CONTINUOUS
 62
     7
 10
143.85400098920951
 20
136.94063349846999
 30
0.0
 42
-0.0087742072034693
  0
VERTEX
  5
103E
  8
DATA
  6
CONTINUOUS
 62
     7
 10
143.94850292222571
 20
136.98580511965829
 30
0.0
  0
VERTEX
  5
103F
  8
DATA
  6
CONTINUOUS
 62
     7
 10
143.9504705540605
 20
136.98670357300941
 30
0.0
 42
-0.0076981293136003
  0
VERTEX
  5
1040
  8
DATA
  6
CONTINUOUS
 62
     7
 10
144.05037446405299
 20
137.03047537654169
 30
0.0
  0
VERTEX
  5
1041
  8
DATA
  6
CONTINUOUS
 62
     7
 10
144.05124392988961
 20
137.03084047317819
 30
0.0
 42
-0.0065094002580362
  0
VERTEX
  5
1042
  8
DATA
  6
CONTINUOUS
 62
     7
 10
144.15357937316341
 20
137.0722533164508
 30
0.0
  0
VERTEX
  5
1043
  8
DATA
  6
CONTINUOUS
 62
     7
 10
144.15511919365969
 20
137.0728532387993
 30
0.0
 42
-0.0050840258729909
  0
VERTEX
  5
1044
  8
DATA
  6
CONTINUOUS
 62
     7
 10
144.25529915701779
 20
137.11071523481789
 30
0.0
  0
VERTEX
  5
1045
  8
DATA
  6
CONTINUOUS
 62
     7
 10
144.258185794512
 20
137.11177279358751
 30
0.0
 42
-0.0042766363449856
  0
VERTEX
  5
1046
  8
DATA
  6
CONTINUOUS
 62
     7
 10
144.35326756461919
 20
137.1456877355038
 30
0.0
  0
VERTEX
  5
1047
  8
DATA
  6
CONTINUOUS
 62
     7
 10
144.35657059435391
 20
137.1468341511285
 30
0.0
 42
-0.0035683362365544
  0
VERTEX
  5
1048
  8
DATA
  6
CONTINUOUS
 62
     7
 10
144.44555173730041
 20
137.177007949254
 30
0.0
  0
VERTEX
  5
1049
  8
DATA
  6
CONTINUOUS
 62
     7
 10
144.44890133126921
 20
137.17811721778151
 30
0.0
 42
-0.0027961304083588
  0
VERTEX
  5
104A
  8
DATA
  6
CONTINUOUS
 62
     7
 10
144.53154882783861
 20
137.2049752515224
 30
0.0
  0
VERTEX
  5
104B
  8
DATA
  6
CONTINUOUS
 62
     7
 10
144.53389138952781
 20
137.20572205845301
 30
0.0
 42
-0.0021326374384991
  0
VERTEX
  5
104C
  8
DATA
  6
CONTINUOUS
 62
     7
 10
144.61210875337349
 20
137.23029066828809
 30
0.0
 42
-0.0017606536518921
  0
VERTEX
  5
104D
  8
DATA
  6
CONTINUOUS
 62
     7
 10
144.69051527646499
 20
137.2542495637305
 30
0.0
  0
VERTEX
  5
104E
  8
DATA
  6
CONTINUOUS
 62
     7
 10
144.70874642252491
 20
137.2597503881762
 30
0.0
 42
-0.0028429270916582
  0
VERTEX
  5
104F
  8
DATA
  6
CONTINUOUS
 62
     7
 10
144.8238930943204
 20
137.29378012571451
 30
0.0
  0
VERTEX
  5
1050
  8
DATA
  6
CONTINUOUS
 62
     7
 10
144.8565536228773
 20
137.3032308317398
 30
0.0
 42
-0.0021407751008181
  0
VERTEX
  5
1051
  8
DATA
  6
CONTINUOUS
 62
     7
 10
144.96177793649801
 20
137.33319107421991
 30
0.0
 42
-0.0011046787311211
  0
VERTEX
  5
1052
  8
DATA
  6
CONTINUOUS
 62
     7
 10
145.0671952100123
 20
137.36246788673
 30
0.0
  0
VERTEX
  5
1053
  8
DATA
  6
CONTINUOUS
 62
     7
 10
145.07251307789491
 20
137.36393213397639
 30
0.0
 42
-0.0017084777503704
  0
VERTEX
  5
1054
  8
DATA
  6
CONTINUOUS
 62
     7
 10
145.18873866178291
 20
137.3955073974478
 30
0.0
  0
VERTEX
  5
1055
  8
DATA
  6
CONTINUOUS
 62
     7
 10
145.20780786636689
 20
137.4006180677458
 30
0.0
 42
-0.0012787494267421
  0
VERTEX
  5
1056
  8
DATA
  6
CONTINUOUS
 62
     7
 10
145.36238461920689
 20
137.4416222024912
 30
0.0
  0
VERTEX
  5
1057
  8
DATA
  6
CONTINUOUS
 62
     7
 10
145.3634802530089
 20
137.4419098409208
 30
0.0
 42
-0.0010709828315322
  0
VERTEX
  5
1058
  8
DATA
  6
CONTINUOUS
 62
     7
 10
145.52044063650209
 20
137.4827577178734
 30
0.0
  0
VERTEX
  5
1059
  8
DATA
  6
CONTINUOUS
 62
     7
 10
145.53097883618099
 20
137.4854761251639
 30
0.0
 42
-0.0010272326372331
  0
VERTEX
  5
105A
  8
DATA
  6
CONTINUOUS
 62
     7
 10
145.70919676132519
 20
137.53105846963521
 30
0.0
  0
VERTEX
  5
105B
  8
DATA
  6
CONTINUOUS
 62
     7
 10
145.718969491986
 20
137.5335366360986
 30
0.0
 42
-0.0007148280033725
  0
VERTEX
  5
105C
  8
DATA
  6
CONTINUOUS
 62
     7
 10
145.91689785084719
 20
137.5834262009601
 30
0.0
  0
VERTEX
  5
105D
  8
DATA
  6
CONTINUOUS
 62
     7
 10
145.93965362049821
 20
137.5891274032698
 30
0.0
 42
-0.0007311174177713
  0
VERTEX
  5
105E
  8
DATA
  6
CONTINUOUS
 62
     7
 10
146.18325353229719
 20
137.64978020267151
 30
0.0
  0
VERTEX
  5
105F
  8
DATA
  6
CONTINUOUS
 62
     7
 10
146.20549353568879
 20
137.6552831131981
 30
0.0
  0
VERTEX
  5
1060
  8
DATA
  6
CONTINUOUS
 62
     7
 10
146.20739088936281
 20
137.65575263981049
 30
0.0
  0
SEQEND
  5
1061
  8
DATA
  6
CONTINUOUS
 62
     7
  0
POLYLINE
  5
6CF
  8
DATA
  6
CONTINUOUS
 62
     7
 66
     1
 10
0.0
 20
0.0
 30
0.0
  0
VERTEX
  5
1062
  8
DATA
  6
CONTINUOUS
 62
     7
 10
142.99381767378301
 20
135.7247360988691
 30
0.0
  0
VERTEX
  5
1063
  8
DATA
  6
CONTINUOUS
 62
     7
 10
142.99382532680639
 20
135.72921596053661
 30
0.0
  0
SEQEND
  5
1064
  8
DATA
  6
CONTINUOUS
 62
     7
  0
POLYLINE
  5
6D4
  8
DATA
  6
CONTINUOUS
 62
     7
 66
     1
 10
0.0
 20
0.0
 30
0.0
 70
   128
  0
VERTEX
  5
1065
  8
DATA
  6
CONTINUOUS
 62
     7
 10
146.21286978120671
 20
140.58102109960001
 30
0.0
  0
VERTEX
  5
1066
  8
DATA
  6
CONTINUOUS
 62
     7
 10
146.1693888798541
 20
140.57783078946539
 30
0.0
 42
0.000395838543173
  0
VERTEX
  5
1067
  8
DATA
  6
CONTINUOUS
 62
     7
 10
145.9034810039289
 20
140.5581087579406
 30
0.0
  0
VERTEX
  5
1068
  8
DATA
  6
CONTINUOUS
 62
     7
 10
145.89722566390751
 20
140.55763982799269
 30
0.0
 42
0.0001180428717888
  0
VERTEX
  5
1069
  8
DATA
  6
CONTINUOUS
 62
     7
 10
145.6438485800054
 20
140.53858532444031
 30
0.0
  0
VERTEX
  5
106A
  8
DATA
  6
CONTINUOUS
 62
     7
 10
145.64001714391711
 20
140.53829627424261
 30
0.0
  0
VERTEX
  5
106B
  8
DATA
  6
CONTINUOUS
 62
     7
 10
145.63619078745691
 20
140.53800760169011
 30
0.0
  0
VERTEX
  5
106C
  8
DATA
  6
CONTINUOUS
 62
     7
 10
145.6323695106251
 20
140.53771930678269
 30
0.0
  0
VERTEX
  5
106D
  8
DATA
  6
CONTINUOUS
 62
     7
 10
145.62855331342149
 20
140.53743138952049
 30
0.0
  0
VERTEX
  5
106E
  8
DATA
  6
CONTINUOUS
 62
     7
 10
145.62474219584621
 20
140.5371438499034
 30
0.0
  0
VERTEX
  5
106F
  8
DATA
  6
CONTINUOUS
 62
     7
 10
145.62093615789919
 20
140.5368566879315
 30
0.0
  0
VERTEX
  5
1070
  8
DATA
  6
CONTINUOUS
 62
     7
 10
145.61713519958039
 20
140.53656990360469
 30
0.0
  0
VERTEX
  5
1071
  8
DATA
  6
CONTINUOUS
 62
     7
 10
145.61333932088999
 20
140.53628349692309
 30
0.0
  0
VERTEX
  5
1072
  8
DATA
  6
CONTINUOUS
 62
     7
 10
145.60954852182769
 20
140.5359974678866
 30
0.0
  0
VERTEX
  5
1073
  8
DATA
  6
CONTINUOUS
 62
     7
 10
145.6057628023938
 20
140.53571181649519
 30
0.0
  0
VERTEX
  5
1074
  8
DATA
  6
CONTINUOUS
 62
     7
 10
145.60198216258809
 20
140.53542654274901
 30
0.0
  0
VERTEX
  5
1075
  8
DATA
  6
CONTINUOUS
 62
     7
 10
145.59820660241081
 20
140.53514164664799
 30
0.0
  0
VERTEX
  5
1076
  8
DATA
  6
CONTINUOUS
 62
     7
 10
145.59443612186169
 20
140.5348571281921
 30
0.0
  0
VERTEX
  5
1077
  8
DATA
  6
CONTINUOUS
 62
     7
 10
145.59067072094081
 20
140.5345729873813
 30
0.0
  0
VERTEX
  5
1078
  8
DATA
  6
CONTINUOUS
 62
     7
 10
145.58691039964819
 20
140.53428922421571
 30
0.0
  0
VERTEX
  5
1079
  8
DATA
  6
CONTINUOUS
 62
     7
 10
145.58315515798401
 20
140.53400583869521
 30
0.0
  0
VERTEX
  5
107A
  8
DATA
  6
CONTINUOUS
 62
     7
 10
145.5794049959479
 20
140.5337228308199
 30
0.0
  0
VERTEX
  5
107B
  8
DATA
  6
CONTINUOUS
 62
     7
 10
145.57565991354011
 20
140.53344020058969
 30
0.0
  0
VERTEX
  5
107C
  8
DATA
  6
CONTINUOUS
 62
     7
 10
145.5719199107607
 20
140.5331579480048
 30
0.0
  0
VERTEX
  5
107D
  8
DATA
  6
CONTINUOUS
 62
     7
 10
145.5681849876095
 20
140.5328760730649
 30
0.0
  0
VERTEX
  5
107E
  8
DATA
  6
CONTINUOUS
 62
     7
 10
145.56445514408651
 20
140.5325945757701
 30
0.0
  0
VERTEX
  5
107F
  8
DATA
  6
CONTINUOUS
 62
     7
 10
145.5607303801919
 20
140.53231345612059
 30
0.0
  0
VERTEX
  5
1080
  8
DATA
  6
CONTINUOUS
 62
     7
 10
145.5570106959255
 20
140.5320327141161
 30
0.0
  0
VERTEX
  5
1081
  8
DATA
  6
CONTINUOUS
 62
     7
 10
145.55329609128739
 20
140.5317523497568
 30
0.0
  0
VERTEX
  5
1082
  8
DATA
  6
CONTINUOUS
 62
     7
 10
145.5495865662775
 20
140.5314723630427
 30
0.0
  0
VERTEX
  5
1083
  8
DATA
  6
CONTINUOUS
 62
     7
 10
145.54588212089601
 20
140.5311927539737
 30
0.0
  0
VERTEX
  5
1084
  8
DATA
  6
CONTINUOUS
 62
     7
 10
145.54218275514259
 20
140.53091352254981
 30
0.0
  0
VERTEX
  5
1085
  8
DATA
  6
CONTINUOUS
 62
     7
 10
145.53848846901761
 20
140.53063466877111
 30
0.0
  0
VERTEX
  5
1086
  8
DATA
  6
CONTINUOUS
 62
     7
 10
145.53479926252081
 20
140.53035619263761
 30
0.0
  0
VERTEX
  5
1087
  8
DATA
  6
CONTINUOUS
 62
     7
 10
145.53111513565241
 20
140.53007809414919
 30
0.0
  0
VERTEX
  5
1088
  8
DATA
  6
CONTINUOUS
 62
     7
 10
145.52743608841209
 20
140.5298003733059
 30
0.0
  0
VERTEX
  5
1089
  8
DATA
  6
CONTINUOUS
 62
     7
 10
145.5237621208002
 20
140.52952303010781
 30
0.0
  0
VERTEX
  5
108A
  8
DATA
  6
CONTINUOUS
 62
     7
 10
145.52009323281661
 20
140.52924606455491
 30
0.0
  0
VERTEX
  5
108B
  8
DATA
  6
CONTINUOUS
 62
     7
 10
145.51642942446111
 20
140.52896947664701
 30
0.0
  0
VERTEX
  5
108C
  8
DATA
  6
CONTINUOUS
 62
     7
 10
145.51277069573399
 20
140.52869326638441
 30
0.0
  0
VERTEX
  5
108D
  8
DATA
  6
CONTINUOUS
 62
     7
 10
145.5091170466352
 20
140.5284174337668
 30
0.0
  0
VERTEX
  5
108E
  8
DATA
  6
CONTINUOUS
 62
     7
 10
145.50546847716461
 20
140.52814197879451
 30
0.0
  0
VERTEX
  5
108F
  8
DATA
  6
CONTINUOUS
 62
     7
 10
145.50182498732229
 20
140.52786690146721
 30
0.0
  0
VERTEX
  5
1090
  8
DATA
  6
CONTINUOUS
 62
     7
 10
145.4981865771083
 20
140.52759220178521
 30
0.0
  0
VERTEX
  5
1091
  8
DATA
  6
CONTINUOUS
 62
     7
 10
145.49455324652251
 20
140.52731787974821
 30
0.0
  0
VERTEX
  5
1092
  8
DATA
  6
CONTINUOUS
 62
     7
 10
145.490924995565
 20
140.5270439353564
 30
0.0
  0
VERTEX
  5
1093
  8
DATA
  6
CONTINUOUS
 62
     7
 10
145.4873018242358
 20
140.52677036860979
 30
0.0
  0
VERTEX
  5
1094
  8
DATA
  6
CONTINUOUS
 62
     7
 10
145.4836837325349
 20
140.52649717950831
 30
0.0
  0
VERTEX
  5
1095
  8
DATA
  6
CONTINUOUS
 62
     7
 10
145.48007072046221
 20
140.52622436805191
 30
0.0
  0
VERTEX
  5
1096
  8
DATA
  6
CONTINUOUS
 62
     7
 10
145.47646278801781
 20
140.52595193424079
 30
0.0
  0
VERTEX
  5
1097
  8
DATA
  6
CONTINUOUS
 62
     7
 10
145.47285993520171
 20
140.5256798780747
 30
0.0
  0
VERTEX
  5
1098
  8
DATA
  6
CONTINUOUS
 62
     7
 10
145.46926216201391
 20
140.52540819955379
 30
0.0
  0
VERTEX
  5
1099
  8
DATA
  6
CONTINUOUS
 62
     7
 10
145.46566946845419
 20
140.525136898678
 30
0.0
  0
VERTEX
  5
109A
  8
DATA
  6
CONTINUOUS
 62
     7
 10
145.46208185452301
 20
140.5248659754474
 30
0.0
  0
VERTEX
  5
109B
  8
DATA
  6
CONTINUOUS
 62
     7
 10
145.45849932021989
 20
140.5245954298619
 30
0.0
  0
VERTEX
  5
109C
  8
DATA
  6
CONTINUOUS
 62
     7
 10
145.4549218655452
 20
140.5243252619216
 30
0.0
  0
VERTEX
  5
109D
  8
DATA
  6
CONTINUOUS
 62
     7
 10
145.4513494904987
 20
140.5240554716265
 30
0.0
  0
VERTEX
  5
109E
  8
DATA
  6
CONTINUOUS
 62
     7
 10
145.44778219508041
 20
140.52378605897641
 30
0.0
  0
VERTEX
  5
109F
  8
DATA
  6
CONTINUOUS
 62
     7
 10
145.44421997929049
 20
140.52351702397149
 30
0.0
  0
VERTEX
  5
10A0
  8
DATA
  6
CONTINUOUS
 62
     7
 10
145.44066284312891
 20
140.5232483666118
 30
0.0
  0
VERTEX
  5
10A1
  8
DATA
  6
CONTINUOUS
 62
     7
 10
145.4371107865955
 20
140.52298008689721
 30
0.0
  0
VERTEX
  5
10A2
  8
DATA
  6
CONTINUOUS
 62
     7
 10
145.43356380969041
 20
140.52271218482781
 30
0.0
  0
VERTEX
  5
10A3
  8
DATA
  6
CONTINUOUS
 62
     7
 10
145.43002191241351
 20
140.52244466040349
 30
0.0
  0
VERTEX
  5
10A4
  8
DATA
  6
CONTINUOUS
 62
     7
 10
145.42648509476501
 20
140.52217751362431
 30
0.0
  0
VERTEX
  5
10A5
  8
DATA
  6
CONTINUOUS
 62
     7
 10
145.42295335674461
 20
140.5219107444903
 30
0.0
  0
VERTEX
  5
10A6
  8
DATA
  6
CONTINUOUS
 62
     7
 10
145.41942669835259
 20
140.52164435300151
 30
0.0
  0
VERTEX
  5
10A7
  8
DATA
  6
CONTINUOUS
 62
     7
 10
145.41590511958881
 20
140.52137833915779
 30
0.0
  0
VERTEX
  5
10A8
  8
DATA
  6
CONTINUOUS
 62
     7
 10
145.4123886204533
 20
140.52111270295919
 30
0.0
  0
VERTEX
  5
10A9
  8
DATA
  6
CONTINUOUS
 62
     7
 10
145.4123886204533
 20
140.52111270295919
 30
0.0
  0
VERTEX
  5
10AA
  8
DATA
  6
CONTINUOUS
 62
     7
 10
145.3752357235343
 20
140.5183061425823
 30
0.0
 42
-0.0000636221652252
  0
VERTEX
  5
10AB
  8
DATA
  6
CONTINUOUS
 62
     7
 10
145.2246466757725
 20
140.5069497928757
 30
0.0
  0
VERTEX
  5
10AC
  8
DATA
  6
CONTINUOUS
 62
     7
 10
145.2246466757725
 20
140.5069497928757
 30
0.0
 42
-0.0001804544276519
  0
VERTEX
  5
10AD
  8
DATA
  6
CONTINUOUS
 62
     7
 10
145.0740521109019
 20
140.49566695568541
 30
0.0
  0
VERTEX
  5
10AE
  8
DATA
  6
CONTINUOUS
 62
     7
 10
145.05650015434591
 20
140.4943582990646
 30
0.0
  0
VERTEX
  5
10AF
  8
DATA
  6
CONTINUOUS
 62
     7
 10
145.05650015434591
 20
140.4943582990646
 30
0.0
 42
-0.0005052931405829
  0
VERTEX
  5
10B0
  8
DATA
  6
CONTINUOUS
 62
     7
 10
144.8707838015786
 20
140.4807001819928
 30
0.0
  0
VERTEX
  5
10B1
  8
DATA
  6
CONTINUOUS
 62
     7
 10
144.85932970873881
 20
140.4798694520104
 30
0.0
  0
VERTEX
  5
10B2
  8
DATA
  6
CONTINUOUS
 62
     7
 10
144.85053525463371
 20
140.47923161741221
 30
0.0
 42
-0.0006454639077306
  0
VERTEX
  5
10B3
  8
DATA
  6
CONTINUOUS
 62
     7
 10
144.65946825270589
 20
140.4656220458283
 30
0.0
  0
VERTEX
  5
10B4
  8
DATA
  6
CONTINUOUS
 62
     7
 10
144.6505749070711
 20
140.46500011677421
 30
0.0
 42
-0.0009396243250903
  0
VERTEX
  5
10B5
  8
DATA
  6
CONTINUOUS
 62
     7
 10
144.4772548647785
 20
140.45320676885191
 30
0.0
  0
VERTEX
  5
10B6
  8
DATA
  6
CONTINUOUS
 62
     7
 10
144.45649040599341
 20
140.45183307420621
 30
0.0
 42
-0.0014020868616513
  0
VERTEX
  5
10B7
  8
DATA
  6
CONTINUOUS
 62
     7
 10
144.32465370217039
 20
140.44348252106579
 30
0.0
  0
VERTEX
  5
10B8
  8
DATA
  6
CONTINUOUS
 62
     7
 10
144.3054333292875
 20
140.4423192042635
 30
0.0
 42
-0.0009184711808497
  0
VERTEX
  5
10B9
  8
DATA
  6
CONTINUOUS
 62
     7
 10
144.2120038835518
 20
140.43683660312649
 30
0.0
  0
VERTEX
  5
10BA
  8
DATA
  6
CONTINUOUS
 62
     7
 10
144.21173492038039
 20
140.43682131562159
 30
0.0
 42
-0.0010592376410589
  0
VERTEX
  5
10BB
  8
DATA
  6
CONTINUOUS
 62
     7
 10
144.1188225603299
 20
140.43173774690499
 30
0.0
  0
VERTEX
  5
10BC
  8
DATA
  6
CONTINUOUS
 62
     7
 10
144.1182161988992
 20
140.4317058589539
 30
0.0
 42
-0.0012397789555916
  0
VERTEX
  5
10BD
  8
DATA
  6
CONTINUOUS
 62
     7
 10
144.02649439738261
 20
140.42711032876659
 30
0.0
  0
VERTEX
  5
10BE
  8
DATA
  6
CONTINUOUS
 62
     7
 10
144.0256678667686
 20
140.42707097149159
 30
0.0
 42
-0.001472085095562
  0
VERTEX
  5
10BF
  8
DATA
  6
CONTINUOUS
 62
     7
 10
143.9355758838033
 20
140.42304683242801
 30
0.0
  0
VERTEX
  5
10C0
  8
DATA
  6
CONTINUOUS
 62
     7
 10
143.9347486157244
 20
140.4230123210022
 30
0.0
 42
-0.0016822992564533
  0
VERTEX
  5
10C1
  8
DATA
  6
CONTINUOUS
 62
     7
 10
143.8462879076032
 20
140.4196200871049
 30
0.0
  0
VERTEX
  5
10C2
  8
DATA
  6
CONTINUOUS
 62
     7
 10
143.84581894231411
 20
140.41960368352881
 30
0.0
 42
-0.0019319604631551
  0
VERTEX
  5
10C3
  8
DATA
  6
CONTINUOUS
 62
     7
 10
143.758274227713
 20
140.4168801595103
 30
0.0
  0
VERTEX
  5
10C4
  8
DATA
  6
CONTINUOUS
 62
     7
 10
143.758274227713
 20
140.4168801595103
 30
0.0
 42
-0.0021949079964499
  0
VERTEX
  5
10C5
  8
DATA
  6
CONTINUOUS
 62
     7
 10
143.67071020611911
 20
140.41487929440331
 30
0.0
  0
VERTEX
  5
10C6
  8
DATA
  6
CONTINUOUS
 62
     7
 10
143.6507440300451
 20
140.41451074630481
 30
0.0
  0
VERTEX
  5
10C7
  8
DATA
  6
CONTINUOUS
 62
     7
 10
143.6507440300451
 20
140.41451074630481
 30
0.0
 42
-0.0052024847495529
  0
VERTEX
  5
10C8
  8
DATA
  6
CONTINUOUS
 62
     7
 10
143.52322818939379
 20
140.41348401113979
 30
0.0
  0
VERTEX
  5
10C9
  8
DATA
  6
CONTINUOUS
 62
     7
 10
143.5225152601891
 20
140.4134856888258
 30
0.0
  0
VERTEX
  5
10CA
  8
DATA
  6
CONTINUOUS
 62
     7
 10
143.49939028972031
 20
140.41354010718871
 30
0.0
 42
-0.0032163813573934
  0
VERTEX
  5
10CB
  8
DATA
  6
CONTINUOUS
 62
     7
 10
143.41669252224349
 20
140.41426670563311
 30
0.0
  0
VERTEX
  5
10CC
  8
DATA
  6
CONTINUOUS
 62
     7
 10
143.41669252224349
 20
140.41426670563311
 30
0.0
 42
-0.0031336304716112
  0
VERTEX
  5
10CD
  8
DATA
  6
CONTINUOUS
 62
     7
 10
143.33401056446331
 20
140.4160434791894
 30
0.0
  0
VERTEX
  5
10CE
  8
DATA
  6
CONTINUOUS
 62
     7
 10
143.3260474382399
 20
140.4162645380803
 30
0.0
  0
VERTEX
  5
10CF
  8
DATA
  6
CONTINUOUS
 62
     7
 10
143.31777766456
 20
140.4164941096011
 30
0.0
 42
-0.0054552756359897
  0
VERTEX
  5
10D0
  8
DATA
  6
CONTINUOUS
 62
     7
 10
143.23575475625589
 20
140.41966699417071
 30
0.0
  0
VERTEX
  5
10D1
  8
DATA
  6
CONTINUOUS
 62
     7
 10
143.2184202237012
 20
140.4205270422195
 30
0.0
 42
-0.0020795377659933
  0
VERTEX
  5
10D2
  8
DATA
  6
CONTINUOUS
 62
     7
 10
143.17111158223381
 20
140.42307153353559
 30
0.0
  0
VERTEX
  5
10D3
  8
DATA
  6
CONTINUOUS
 62
     7
 10
143.17111158223381
 20
140.42307153353559
 30
0.0
 42
-0.0029468435849719
  0
VERTEX
  5
10D4
  8
DATA
  6
CONTINUOUS
 62
     7
 10
143.12383132210249
 20
140.42609144339801
 30
0.0
  0
VERTEX
  5
10D5
  8
DATA
  6
CONTINUOUS
 62
     7
 10
143.11240885565971
 20
140.4268886463696
 30
0.0
  0
VERTEX
  5
10D6
  8
DATA
  6
CONTINUOUS
 62
     7
 10
143.10926784807711
 20
140.42710786527391
 30
0.0
 42
-0.0056737802122413
  0
VERTEX
  5
10D7
  8
DATA
  6
CONTINUOUS
 62
     7
 10
143.04550123009491
 20
140.43228601959819
 30
0.0
  0
VERTEX
  5
10D8
  8
DATA
  6
CONTINUOUS
 62
     7
 10
143.03340513282311
 20
140.43340657875791
 30
0.0
 42
-0.0048226298853812
  0
VERTEX
  5
10D9
  8
DATA
  6
CONTINUOUS
 62
     7
 10
142.9939284522107
 20
140.43744800530339
 30
0.0
  0
VERTEX
  5
10DA
  8
DATA
  6
CONTINUOUS
 62
     7
 10
142.99381767374959
 20
140.4374604665874
 30
0.0
  0
SEQEND
  5
10DB
  8
DATA
  6
CONTINUOUS
 62
     7
  0
POLYLINE
  5
74C
  8
DATA
  6
CONTINUOUS
 62
     7
 66
     1
 10
0.0
 20
0.0
 30
0.0
 70
   128
  0
VERTEX
  5
10DC
  8
DATA
  6
CONTINUOUS
 62
     7
 10
151.0518832914542
 20
139.96675421729691
 30
0.0
  0
VERTEX
  5
10DD
  8
DATA
  6
CONTINUOUS
 62
     7
 10
151.0518832009397
 20
139.9670977337299
 30
0.0
 42
0.0121183095000592
  0
VERTEX
  5
10DE
  8
DATA
  6
CONTINUOUS
 62
     7
 10
151.0509940014137
 20
140.00338592029419
 30
0.0
 42
0.0137527743267097
  0
VERTEX
  5
10DF
  8
DATA
  6
CONTINUOUS
 62
     7
 10
151.04822953969321
 20
140.03957650008249
 30
0.0
  0
VERTEX
  5
10E0
  8
DATA
  6
CONTINUOUS
 62
     7
 10
151.0482144181529
 20
140.03972173783521
 30
0.0
 42
0.014999520563938
  0
VERTEX
  5
10E1
  8
DATA
  6
CONTINUOUS
 62
     7
 10
151.04333611451119
 20
140.0759803633436
 30
0.0
  0
VERTEX
  5
10E2
  8
DATA
  6
CONTINUOUS
 62
     7
 10
151.04287607431621
 20
140.0787648633663
 30
0.0
 42
0.0218768625677561
  0
VERTEX
  5
10E3
  8
DATA
  6
CONTINUOUS
 62
     7
 10
151.0343803640605
 20
140.1191222712398
 30
0.0
  0
VERTEX
  5
10E4
  8
DATA
  6
CONTINUOUS
 62
     7
 10
151.03336709961411
 20
140.12307028757419
 30
0.0
 42
0.0183412566773117
  0
VERTEX
  5
10E5
  8
DATA
  6
CONTINUOUS
 62
     7
 10
151.02396642510749
 20
140.1548148094067
 30
0.0
 42
0.0170665110464269
  0
VERTEX
  5
10E6
  8
DATA
  6
CONTINUOUS
 62
     7
 10
151.0123423662306
 20
140.1858174949713
 30
0.0
  0
VERTEX
  5
10E7
  8
DATA
  6
CONTINUOUS
 62
     7
 10
151.0123293359305
 20
140.1858489398945
 30
0.0
 42
0.0206289581908714
  0
VERTEX
  5
10E8
  8
DATA
  6
CONTINUOUS
 62
     7
 10
150.99837859501369
 20
140.21594181190341
 30
0.0
  0
VERTEX
  5
10E9
  8
DATA
  6
CONTINUOUS
 62
     7
 10
150.998024526786
 20
140.2166297050118
 30
0.0
 42
0.0199162819233988
  0
VERTEX
  5
10EA
  8
DATA
  6
CONTINUOUS
 62
     7
 10
150.98091968318411
 20
140.24684093955429
 30
0.0
  0
VERTEX
  5
10EB
  8
DATA
  6
CONTINUOUS
 62
     7
 10
150.98053518756021
 20
140.24746108231309
 30
0.0
 42
0.0221334116384129
  0
VERTEX
  5
10EC
  8
DATA
  6
CONTINUOUS
 62
     7
 10
150.96013474496991
 20
140.27732749683261
 30
0.0
  0
VERTEX
  5
10ED
  8
DATA
  6
CONTINUOUS
 62
     7
 10
150.95756236621739
 20
140.2807571772745
 30
0.0
 42
0.0275029328212186
  0
VERTEX
  5
10EE
  8
DATA
  6
CONTINUOUS
 62
     7
 10
150.92880962762189
 20
140.31499668077589
 30
0.0
  0
VERTEX
  5
10EF
  8
DATA
  6
CONTINUOUS
 62
     7
 10
150.92419588567941
 20
140.3199144962399
 30
0.0
 42
0.0199642462571901
  0
VERTEX
  5
10F0
  8
DATA
  6
CONTINUOUS
 62
     7
 10
150.90064623546081
 20
140.343088840147
 30
0.0
  0
VERTEX
  5
10F1
  8
DATA
  6
CONTINUOUS
 62
     7
 10
150.8979651269579
 20
140.3455243888979
 30
0.0
 42
0.0118519944083508
  0
VERTEX
  5
10F2
  8
DATA
  6
CONTINUOUS
 62
     7
 10
150.87845135566491
 20
140.3624243391437
 30
0.0
 42
0.0110888372870528
  0
VERTEX
  5
10F3
  8
DATA
  6
CONTINUOUS
 62
     7
 10
150.85818231701509
 20
140.378412094765
 30
0.0
  0
VERTEX
  5
10F4
  8
DATA
  6
CONTINUOUS
 62
     7
 10
150.85479089330639
 20
140.38096724595209
 30
0.0
 42
0.0162767755468426
  0
VERTEX
  5
10F5
  8
DATA
  6
CONTINUOUS
 62
     7
 10
150.82674177318461
 20
140.40070238808431
 30
0.0
  0
VERTEX
  5
10F6
  8
DATA
  6
CONTINUOUS
 62
     7
 10
150.82319533840379
 20
140.4030288518581
 30
0.0
 42
0.010383882926923
  0
VERTEX
  5
10F7
  8
DATA
  6
CONTINUOUS
 62
     7
 10
150.79742494511061
 20
140.41917894991309
 30
0.0
 42
0.0094699342360751
  0
VERTEX
  5
10F8
  8
DATA
  6
CONTINUOUS
 62
     7
 10
150.7710328135708
 20
140.43429388842929
 30
0.0
  0
VERTEX
  5
10F9
  8
DATA
  6
CONTINUOUS
 62
     7
 10
150.7706936079712
 20
140.43447971269529
 30
0.0
 42
0.0089655591378274
  0
VERTEX
  5
10FA
  8
DATA
  6
CONTINUOUS
 62
     7
 10
150.7430768959895
 20
140.44897115307509
 30
0.0
  0
VERTEX
  5
10FB
  8
DATA
  6
CONTINUOUS
 62
     7
 10
150.7420726328078
 20
140.44947537095601
 30
0.0
 42
0.0088477431636858
  0
VERTEX
  5
10FC
  8
DATA
  6
CONTINUOUS
 62
     7
 10
150.71193143029211
 20
140.46394660376751
 30
0.0
  0
VERTEX
  5
10FD
  8
DATA
  6
CONTINUOUS
 62
     7
 10
150.7112610590475
 20
140.4642539836853
 30
0.0
 42
0.0080896542537901
  0
VERTEX
  5
10FE
  8
DATA
  6
CONTINUOUS
 62
     7
 10
150.67929592088791
 20
140.47828936366011
 30
0.0
  0
VERTEX
  5
10FF
  8
DATA
  6
CONTINUOUS
 62
     7
 10
150.670084396189
 20
140.4821574695878
 30
0.0
 42
0.0140506355117352
  0
VERTEX
  5
1100
  8
DATA
  6
CONTINUOUS
 62
     7
 10
150.61891214361791
 20
140.5019735644529
 30
0.0
  0
VERTEX
  5
1101
  8
DATA
  6
CONTINUOUS
 62
     7
 10
150.61788997496731
 20
140.50233670962959
 30
0.0
 42
0.0064161522584718
  0
VERTEX
  5
1102
  8
DATA
  6
CONTINUOUS
 62
     7
 10
150.56388015244079
 20
140.52074770653971
 30
0.0
  0
VERTEX
  5
1103
  8
DATA
  6
CONTINUOUS
 62
     7
 10
150.56195554674301
 20
140.52137632269671
 30
0.0
 42
0.0113720717748749
  0
VERTEX
  5
1104
  8
DATA
  6
CONTINUOUS
 62
     7
 10
150.50345888659069
 20
140.5390208243806
 30
0.0
  0
VERTEX
  5
1105
  8
DATA
  6
CONTINUOUS
 62
     7
 10
150.4917943747777
 20
140.5422517201321
 30
0.0
 42
0.0097287571831103
  0
VERTEX
  5
1106
  8
DATA
  6
CONTINUOUS
 62
     7
 10
150.40915542285029
 20
140.5634192840019
 30
0.0
  0
VERTEX
  5
1107
  8
DATA
  6
CONTINUOUS
 62
     7
 10
150.40582764061509
 20
140.56420301621671
 30
0.0
 42
0.0086955034062574
  0
VERTEX
  5
1108
  8
DATA
  6
CONTINUOUS
 62
     7
 10
150.31578100919251
 20
140.58376382371949
 30
0.0
  0
VERTEX
  5
1109
  8
DATA
  6
CONTINUOUS
 62
     7
 10
150.31217657421681
 20
140.58448141359801
 30
0.0
 42
0.0075058562984082
  0
VERTEX
  5
110A
  8
DATA
  6
CONTINUOUS
 62
     7
 10
150.2143112295548
 20
140.60244207166079
 30
0.0
  0
VERTEX
  5
110B
  8
DATA
  6
CONTINUOUS
 62
     7
 10
150.2101853859601
 20
140.6031354140205
 30
0.0
 42
0.0067906970823997
  0
VERTEX
  5
110C
  8
DATA
  6
CONTINUOUS
 62
     7
 10
150.10357556395499
 20
140.6195655708174
 30
0.0
  0
VERTEX
  5
110D
  8
DATA
  6
CONTINUOUS
 62
     7
 10
150.09845784325961
 20
140.62028327629611
 30
0.0
 42
0.005956819469863
  0
VERTEX
  5
110E
  8
DATA
  6
CONTINUOUS
 62
     7
 10
149.981210467609
 20
140.63530397479741
 30
0.0
  0
VERTEX
  5
110F
  8
DATA
  6
CONTINUOUS
 62
     7
 10
149.9776666973986
 20
140.63571512310349
 30
0.0
 42
0.0050674200990875
  0
VERTEX
  5
1110
  8
DATA
  6
CONTINUOUS
 62
     7
 10
149.85301921491879
 20
140.6488979109937
 30
0.0
  0
VERTEX
  5
1111
  8
DATA
  6
CONTINUOUS
 62
     7
 10
149.8508472054987
 20
140.64910538800521
 30
0.0
 42
0.0044967806195678
  0
VERTEX
  5
1112
  8
DATA
  6
CONTINUOUS
 62
     7
 10
149.721621615354
 20
140.66027759340199
 30
0.0
  0
VERTEX
  5
1113
  8
DATA
  6
CONTINUOUS
 62
     7
 10
149.72000956345741
 20
140.6604023680363
 30
0.0
 42
0.0038961609507865
  0
VERTEX
  5
1114
  8
DATA
  6
CONTINUOUS
 62
     7
 10
149.59219339550981
 20
140.66929412069661
 30
0.0
  0
VERTEX
  5
1115
  8
DATA
  6
CONTINUOUS
 62
     7
 10
149.58950071887961
 20
140.669460368757
 30
0.0
 42
0.0032878450863362
  0
VERTEX
  5
1116
  8
DATA
  6
CONTINUOUS
 62
     7
 10
149.46695618047511
 20
140.67621780182441
 30
0.0
 42
0.0026880073288002
  0
VERTEX
  5
1117
  8
DATA
  6
CONTINUOUS
 62
     7
 10
149.34433875451609
 20
140.68151021342169
 30
0.0
  0
VERTEX
  5
1118
  8
DATA
  6
CONTINUOUS
 62
     7
 10
149.31762407176609
 20
140.6825194184382
 30
0.0
 42
0.0042356244534947
  0
VERTEX
  5
1119
  8
DATA
  6
CONTINUOUS
 62
     7
 10
149.14150511855951
 20
140.68767906796981
 30
0.0
  0
VERTEX
  5
111A
  8
DATA
  6
CONTINUOUS
 62
     7
 10
149.10742704311119
 20
140.6883885674338
 30
0.0
 42
0.0033343413228041
  0
VERTEX
  5
111B
  8
DATA
  6
CONTINUOUS
 62
     7
 10
148.89836275947661
 20
140.69134663903381
 30
0.0
  0
VERTEX
  5
111C
  8
DATA
  6
CONTINUOUS
 62
     7
 10
148.89133353709201
 20
140.69139921507369
 30
0.0
 42
0.0026922971700953
  0
VERTEX
  5
111D
  8
DATA
  6
CONTINUOUS
 62
     7
 10
148.69630577157949
 20
140.691807782719
 30
0.0
  0
VERTEX
  5
111E
  8
DATA
  6
CONTINUOUS
 62
     7
 10
148.69450093655681
 20
140.69180184539681
 30
0.0
 42
0.0022780419592461
  0
VERTEX
  5
111F
  8
DATA
  6
CONTINUOUS
 62
     7
 10
148.50308748351509
 20
140.69030003439121
 30
0.0
 42
0.0019724806306676
  0
VERTEX
  5
1120
  8
DATA
  6
CONTINUOUS
 62
     7
 10
148.31169321654889
 20
140.6871710771982
 30
0.0
  0
VERTEX
  5
1121
  8
DATA
  6
CONTINUOUS
 62
     7
 10
148.31156050989401
 20
140.68716838398109
 30
0.0
 42
0.0017426432486096
  0
VERTEX
  5
1122
  8
DATA
  6
CONTINUOUS
 62
     7
 10
148.1199290567626
 20
140.68261110190329
 30
0.0
  0
VERTEX
  5
1123
  8
DATA
  6
CONTINUOUS
 62
     7
 10
148.1197490095266
 20
140.68260619218611
 30
0.0
 42
0.0016188215691537
  0
VERTEX
  5
1124
  8
DATA
  6
CONTINUOUS
 62
     7
 10
147.9277923066569
 20
140.6767497091991
 30
0.0
  0
VERTEX
  5
1125
  8
DATA
  6
CONTINUOUS
 62
     7
 10
147.8744684570357
 20
140.67495000895531
 30
0.0
 42
0.0029719373435499
  0
VERTEX
  5
1126
  8
DATA
  6
CONTINUOUS
 62
     7
 10
147.57595346195851
 20
140.6630982851554
 30
0.0
  0
VERTEX
  5
1127
  8
DATA
  6
CONTINUOUS
 62
     7
 10
147.5219859905709
 20
140.6606342936872
 30
0.0
 42
0.0016852330822071
  0
VERTEX
  5
1128
  8
DATA
  6
CONTINUOUS
 62
     7
 10
147.2602799619923
 20
140.64780153960109
 30
0.0
 42
0.0015114498238565
  0
VERTEX
  5
1129
  8
DATA
  6
CONTINUOUS
 62
     7
 10
146.99866103520719
 20
140.6332958621272
 30
0.0
  0
VERTEX
  5
112A
  8
DATA
  6
CONTINUOUS
 62
     7
 10
146.9941428464125
 20
140.6330316450705
 30
0.0
 42
0.0015007070801717
  0
VERTEX
  5
112B
  8
DATA
  6
CONTINUOUS
 62
     7
 10
146.72358132607579
 20
140.61639461490759
 30
0.0
  0
VERTEX
  5
112C
  8
DATA
  6
CONTINUOUS
 62
     7
 10
146.6627398711058
 20
140.6124700932312
 30
0.0
 42
0.0023829957742029
  0
VERTEX
  5
112D
  8
DATA
  6
CONTINUOUS
 62
     7
 10
146.27067485270859
 20
140.58530336153319
 30
0.0
  0
VERTEX
  5
112E
  8
DATA
  6
CONTINUOUS
 62
     7
 10
146.21509048246921
 20
140.5811855670093
 30
0.0
  0
VERTEX
  5
112F
  8
DATA
  6
CONTINUOUS
 62
     7
 10
146.21286978120671
 20
140.58102109960001
 30
0.0
  0
SEQEND
  5
1130
  8
DATA
  6
CONTINUOUS
 62
     7
  0
POLYLINE
  5
7A2
  8
DATA
  6
CONTINUOUS
 62
     7
 66
     1
 10
0.0
 20
0.0
 30
0.0
 70
   128
  0
VERTEX
  5
1131
  8
DATA
  6
CONTINUOUS
 62
     7
 10
146.20739088936281
 20
137.65575263981049
 30
0.0
 42
0.0011853986758668
  0
VERTEX
  5
1132
  8
DATA
  6
CONTINUOUS
 62
     7
 10
146.41856974726301
 20
137.70815311962289
 30
0.0
  0
VERTEX
  5
1133
  8
DATA
  6
CONTINUOUS
 62
     7
 10
146.42393421220279
 20
137.70949773039999
 30
0.0
 42
0.0014109393164765
  0
VERTEX
  5
1134
  8
DATA
  6
CONTINUOUS
 62
     7
 10
146.6455591345096
 20
137.7657134946252
 30
0.0
  0
VERTEX
  5
1135
  8
DATA
  6
CONTINUOUS
 62
     7
 10
146.6742833037317
 20
137.77308579147351
 30
0.0
 42
0.0017159515259396
  0
VERTEX
  5
1136
  8
DATA
  6
CONTINUOUS
 62
     7
 10
146.90503672877429
 20
137.83315541331501
 30
0.0
  0
VERTEX
  5
1137
  8
DATA
  6
CONTINUOUS
 62
     7
 10
146.9304492083769
 20
137.83986398473741
 30
0.0
 42
0.0012490907948354
  0
VERTEX
  5
1138
  8
DATA
  6
CONTINUOUS
 62
     7
 10
147.11005187467759
 20
137.88775707022401
 30
0.0
  0
VERTEX
  5
1139
  8
DATA
  6
CONTINUOUS
 62
     7
 10
147.11760180067799
 20
137.8897905592805
 30
0.0
 42
0.0012127386580755
  0
VERTEX
  5
113A
  8
DATA
  6
CONTINUOUS
 62
     7
 10
147.2818766150925
 20
137.93446379285041
 30
0.0
 42
0.0011737720361145
  0
VERTEX
  5
113B
  8
DATA
  6
CONTINUOUS
 62
     7
 10
147.4459363634042
 20
137.97992060986249
 30
0.0
  0
VERTEX
  5
113C
  8
DATA
  6
CONTINUOUS
 62
     7
 10
147.4601360913106
 20
137.9838909132061
 30
0.0
 42
0.0018332399626593
  0
VERTEX
  5
113D
  8
DATA
  6
CONTINUOUS
 62
     7
 10
147.6522888069203
 20
138.0383780013677
 30
0.0
  0
VERTEX
  5
113E
  8
DATA
  6
CONTINUOUS
 62
     7
 10
147.6699260925464
 20
138.04344919368901
 30
0.0
  0
VERTEX
  5
113F
  8
DATA
  6
CONTINUOUS
 62
     7
 10
147.67046187183999
 20
138.04360325939879
 30
0.0
  0
SEQEND
  5
1140
  8
DATA
  6
CONTINUOUS
 62
     7
  0
POLYLINE
  5
7B3
  8
DATA
  6
CONTINUOUS
 62
     7
 66
     1
 10
0.0
 20
0.0
 30
0.0
  0
VERTEX
  5
1141
  8
DATA
  6
CONTINUOUS
 62
     7
 10
147.67046187183999
 20
138.04360325939879
 30
0.0
  0
VERTEX
  5
1142
  8
DATA
  6
CONTINUOUS
 62
     7
 10
147.6872085420049
 20
138.04842438245379
 30
0.0
  0
SEQEND
  5
1143
  8
DATA
  6
CONTINUOUS
 62
     7
  0
POLYLINE
  5
7B8
  8
DATA
  6
CONTINUOUS
 62
     7
 66
     1
 10
0.0
 20
0.0
 30
0.0
 70
   128
  0
VERTEX
  5
1144
  8
DATA
  6
CONTINUOUS
 62
     7
 10
147.6872085420049
 20
138.04842438245379
 30
0.0
  0
VERTEX
  5
1145
  8
DATA
  6
CONTINUOUS
 62
     7
 10
147.68737319842609
 20
138.04847183440651
 30
0.0
 42
0.0008503319711013
  0
VERTEX
  5
1146
  8
DATA
  6
CONTINUOUS
 62
     7
 10
147.7872529056466
 20
138.07743999544371
 30
0.0
  0
VERTEX
  5
1147
  8
DATA
  6
CONTINUOUS
 62
     7
 10
147.78735320481499
 20
138.0774692709353
 30
0.0
  0
SEQEND
  5
1148
  8
DATA
  6
CONTINUOUS
 62
     7
  0
POLYLINE
  5
7BE
  8
DATA
  6
CONTINUOUS
 62
     7
 66
     1
 10
0.0
 20
0.0
 30
0.0
 70
   128
  0
VERTEX
  5
1149
  8
DATA
  6
CONTINUOUS
 62
     7
 10
146.21286978120671
 20
133.79237701308651
 30
0.0
  0
VERTEX
  5
114A
  8
DATA
  6
CONTINUOUS
 62
     7
 10
146.2107003586415
 20
133.7929140049564
 30
0.0
 42
-0.0004451557214023
  0
VERTEX
  5
114B
  8
DATA
  6
CONTINUOUS
 62
     7
 10
146.00114768690969
 20
133.84498210783869
 30
0.0
  0
VERTEX
  5
114C
  8
DATA
  6
CONTINUOUS
 62
     7
 10
145.9718909730087
 20
133.85227926225971
 30
0.0
 42
-0.0006804559764388
  0
VERTEX
  5
114D
  8
DATA
  6
CONTINUOUS
 62
     7
 10
145.82094961793121
 20
133.89014504146789
 30
0.0
  0
VERTEX
  5
114E
  8
DATA
  6
CONTINUOUS
 62
     7
 10
145.81164618276631
 20
133.892492402659
 30
0.0
 42
-0.0003942293964348
  0
VERTEX
  5
114F
  8
DATA
  6
CONTINUOUS
 62
     7
 10
145.67938962823291
 20
133.92597315633401
 30
0.0
 42
-0.0009152344508328
  0
VERTEX
  5
1150
  8
DATA
  6
CONTINUOUS
 62
     7
 10
145.54722139115421
 20
133.95980011891891
 30
0.0
  0
VERTEX
  5
1151
  8
DATA
  6
CONTINUOUS
 62
     7
 10
145.52570297611959
 20
133.96534950204881
 30
0.0
 42
-0.0010186173220062
  0
VERTEX
  5
1152
  8
DATA
  6
CONTINUOUS
 62
     7
 10
145.373709231021
 20
134.00487757706981
 30
0.0
 42
-0.0011892108311862
  0
VERTEX
  5
1153
  8
DATA
  6
CONTINUOUS
 62
     7
 10
145.2218916238231
 20
134.0450763861316
 30
0.0
  0
VERTEX
  5
1154
  8
DATA
  6
CONTINUOUS
 62
     7
 10
145.21921763004701
 20
134.04579122584491
 30
0.0
 42
-0.00179674353572
  0
VERTEX
  5
1155
  8
DATA
  6
CONTINUOUS
 62
     7
 10
145.06230056094051
 20
134.088344682409
 30
0.0
  0
VERTEX
  5
1156
  8
DATA
  6
CONTINUOUS
 62
     7
 10
145.05758365831619
 20
134.08964204714269
 30
0.0
 42
-0.0021856708567248
  0
VERTEX
  5
1157
  8
DATA
  6
CONTINUOUS
 62
     7
 10
144.91009860190951
 20
134.13090152538959
 30
0.0
  0
VERTEX
  5
1158
  8
DATA
  6
CONTINUOUS
 62
     7
 10
144.89603753553251
 20
134.1349015172203
 30
0.0
 42
-0.0025730191441487
  0
VERTEX
  5
1159
  8
DATA
  6
CONTINUOUS
 62
     7
 10
144.777032597009
 20
134.1694181304895
 30
0.0
  0
VERTEX
  5
115A
  8
DATA
  6
CONTINUOUS
 62
     7
 10
144.75863453857619
 20
134.17485716438861
 30
0.0
 42
-0.001811071467494
  0
VERTEX
  5
115B
  8
DATA
  6
CONTINUOUS
 62
     7
 10
144.67669225769899
 20
134.1994049255114
 30
0.0
  0
VERTEX
  5
115C
  8
DATA
  6
CONTINUOUS
 62
     7
 10
144.67368613785311
 20
134.2003173589967
 30
0.0
 42
-0.0016669333217636
  0
VERTEX
  5
115D
  8
DATA
  6
CONTINUOUS
 62
     7
 10
144.5979225993791
 20
134.22358964701189
 30
0.0
 42
-0.0021592913390938
  0
VERTEX
  5
115E
  8
DATA
  6
CONTINUOUS
 62
     7
 10
144.52233965206051
 20
134.2474409339917
 30
0.0
  0
VERTEX
  5
115F
  8
DATA
  6
CONTINUOUS
 62
     7
 10
144.5200338689807
 20
134.2481795213385
 30
0.0
 42
-0.0027266270964096
  0
VERTEX
  5
1160
  8
DATA
  6
CONTINUOUS
 62
     7
 10
144.4400846408931
 20
134.27427038244551
 30
0.0
  0
VERTEX
  5
1161
  8
DATA
  6
CONTINUOUS
 62
     7
 10
144.43691066093791
 20
134.2753253743536
 30
0.0
 42
-0.0035066123529281
  0
VERTEX
  5
1162
  8
DATA
  6
CONTINUOUS
 62
     7
 10
144.3509608206746
 20
134.3045649989368
 30
0.0
  0
VERTEX
  5
1163
  8
DATA
  6
CONTINUOUS
 62
     7
 10
144.34746850861279
 20
134.305780455346
 30
0.0
 42
-0.0041740115789084
  0
VERTEX
  5
1164
  8
DATA
  6
CONTINUOUS
 62
     7
 10
144.25501497727231
 20
134.3388256033702
 30
0.0
  0
VERTEX
  5
1165
  8
DATA
  6
CONTINUOUS
 62
     7
 10
144.24156569016
 20
134.3437597062408
 30
0.0
 42
-0.0051213978189672
  0
VERTEX
  5
1166
  8
DATA
  6
CONTINUOUS
 62
     7
 10
144.16760541401069
 20
134.3717560947197
 30
0.0
  0
VERTEX
  5
1167
  8
DATA
  6
CONTINUOUS
 62
     7
 10
144.1553483178661
 20
134.3765399059869
 30
0.0
 42
-0.0028541410005919
  0
VERTEX
  5
1168
  8
DATA
  6
CONTINUOUS
 62
     7
 10
144.10630012301411
 20
134.39600623500419
 30
0.0
 42
-0.0030649736445632
  0
VERTEX
  5
1169
  8
DATA
  6
CONTINUOUS
 62
     7
 10
144.05748592764201
 20
134.41605177848581
 30
0.0
  0
VERTEX
  5
116A
  8
DATA
  6
CONTINUOUS
 62
     7
 10
144.04515115679459
 20
134.42120563659549
 30
0.0
 42
-0.0072132904261798
  0
VERTEX
  5
116B
  8
DATA
  6
CONTINUOUS
 62
     7
 10
143.97282510300289
 20
134.45265883164251
 30
0.0
  0
VERTEX
  5
116C
  8
DATA
  6
CONTINUOUS
 62
     7
 10
143.97253332167779
 20
134.45279075902991
 30
0.0
 42
-0.0039786661413395
  0
VERTEX
  5
116D
  8
DATA
  6
CONTINUOUS
 62
     7
 10
143.90150560502249
 20
134.48558877134789
 30
0.0
 42
-0.0091390023432754
  0
VERTEX
  5
116E
  8
DATA
  6
CONTINUOUS
 62
     7
 10
143.83137217554341
 20
134.52023398998341
 30
0.0
  0
VERTEX
  5
116F
  8
DATA
  6
CONTINUOUS
 62
     7
 10
143.8191720414527
 20
134.5265406969462
 30
0.0
 42
-0.0055050604598495
  0
VERTEX
  5
1170
  8
DATA
  6
CONTINUOUS
 62
     7
 10
143.7710254102459
 20
134.55210511844291
 30
0.0
  0
VERTEX
  5
1171
  8
DATA
  6
CONTINUOUS
 62
     7
 10
143.7704089207401
 20
134.55244120862389
 30
0.0
 42
-0.0056577876571745
  0
VERTEX
  5
1172
  8
DATA
  6
CONTINUOUS
 62
     7
 10
143.72407035592991
 20
134.578387930361
 30
0.0
 42
-0.0061204782608293
  0
VERTEX
  5
1173
  8
DATA
  6
CONTINUOUS
 62
     7
 10
143.678349470949
 20
134.60542288604771
 30
0.0
 42
-0.0065976294841085
  0
VERTEX
  5
1174
  8
DATA
  6
CONTINUOUS
 62
     7
 10
143.6333246839821
 20
134.6336158509651
 30
0.0
  0
VERTEX
  5
1175
  8
DATA
  6
CONTINUOUS
 62
     7
 10
143.6331076835435
 20
134.63375574858119
 30
0.0
 42
-0.0071395424947831
  0
VERTEX
  5
1176
  8
DATA
  6
CONTINUOUS
 62
     7
 10
143.588445102539
 20
134.66346042161649
 30
0.0
  0
VERTEX
  5
1177
  8
DATA
  6
CONTINUOUS
 62
     7
 10
143.58823884629811
 20
134.6636018896256
 30
0.0
 42
-0.007511616710638
  0
VERTEX
  5
1178
  8
DATA
  6
CONTINUOUS
 62
     7
 10
143.54405715360031
 20
134.69489170246229
 30
0.0
 42
-0.0078903630011436
  0
VERTEX
  5
1179
  8
DATA
  6
CONTINUOUS
 62
     7
 10
143.50085874809631
 20
134.72752847133469
 30
0.0
 42
-0.0082831201206609
  0
VERTEX
  5
117A
  8
DATA
  6
CONTINUOUS
 62
     7
 10
143.458737162381
 20
134.76154630331891
 30
0.0
 42
-0.0087387181367319
  0
VERTEX
  5
117B
  8
DATA
  6
CONTINUOUS
 62
     7
 10
143.4177978961917
 20
134.79697800722619
 30
0.0
 42
-0.0092141505910962
  0
VERTEX
  5
117C
  8
DATA
  6
CONTINUOUS
 62
     7
 10
143.3781599941822
 20
134.8338534514078
 30
0.0
  0
VERTEX
  5
117D
  8
DATA
  6
CONTINUOUS
 62
     7
 10
143.37811711323681
 20
134.83389484386231
 30
0.0
 42
-0.0097206917925586
  0
VERTEX
  5
117E
  8
DATA
  6
CONTINUOUS
 62
     7
 10
143.33999071759681
 20
134.87215720897541
 30
0.0
  0
VERTEX
  5
117F
  8
DATA
  6
CONTINUOUS
 62
     7
 10
143.3399512187049
 20
134.87219842086671
 30
0.0
 42
-0.0099831240721694
  0
VERTEX
  5
1180
  8
DATA
  6
CONTINUOUS
 62
     7
 10
143.30343951141319
 20
134.9118487365956
 30
0.0
 42
-0.0101618814862031
  0
VERTEX
  5
1181
  8
DATA
  6
CONTINUOUS
 62
     7
 10
143.2685537926929
 20
134.9529383635587
 30
0.0
 42
-0.0103476643640729
  0
VERTEX
  5
1182
  8
DATA
  6
CONTINUOUS
 62
     7
 10
143.23538168069661
 20
134.99542480856391
 30
0.0
  0
VERTEX
  5
1183
  8
DATA
  6
CONTINUOUS
 62
     7
 10
143.2313404087335
 20
135.00082769179511
 30
0.0
 42
-0.0159089078322108
  0
VERTEX
  5
1184
  8
DATA
  6
CONTINUOUS
 62
     7
 10
143.19288956883091
 20
135.0557962139732
 30
0.0
  0
VERTEX
  5
1185
  8
DATA
  6
CONTINUOUS
 62
     7
 10
143.1892038360061
 20
135.06143931008009
 30
0.0
 42
-0.0108702717183785
  0
VERTEX
  5
1186
  8
DATA
  6
CONTINUOUS
 62
     7
 10
143.16086367855539
 20
135.10696157473481
 30
0.0
 42
-0.0111254545905925
  0
VERTEX
  5
1187
  8
DATA
  6
CONTINUOUS
 62
     7
 10
143.1345466515269
 20
135.15369828956571
 30
0.0
 42
-0.0113739334272323
  0
VERTEX
  5
1188
  8
DATA
  6
CONTINUOUS
 62
     7
 10
143.1103523908489
 20
135.20158369036551
 30
0.0
  0
VERTEX
  5
1189
  8
DATA
  6
CONTINUOUS
 62
     7
 10
143.1103399041713
 20
135.20160986682919
 30
0.0
 42
-0.0113565071751113
  0
VERTEX
  5
118A
  8
DATA
  6
CONTINUOUS
 62
     7
 10
143.08831762392759
 20
135.25061156912159
 30
0.0
 42
-0.0113320969007437
  0
VERTEX
  5
118B
  8
DATA
  6
CONTINUOUS
 62
     7
 10
143.068534562547
 20
135.3005776079309
 30
0.0
 42
-0.0113525396658384
  0
VERTEX
  5
118C
  8
DATA
  6
CONTINUOUS
 62
     7
 10
143.0510370870204
 20
135.35139180649929
 30
0.0
  0
VERTEX
  5
118D
  8
DATA
  6
CONTINUOUS
 62
     7
 10
143.05101174334229
 20
135.35147121921401
 30
0.0
 42
-0.011371983745909
  0
VERTEX
  5
118E
  8
DATA
  6
CONTINUOUS
 62
     7
 10
143.0357938604877
 20
135.4031877357892
 30
0.0
  0
VERTEX
  5
118F
  8
DATA
  6
CONTINUOUS
 62
     7
 10
143.03577266640499
 20
135.4032663186542
 30
0.0
 42
-0.0112794202778546
  0
VERTEX
  5
1190
  8
DATA
  6
CONTINUOUS
 62
     7
 10
143.02287324727939
 20
135.45577856957411
 30
0.0
 42
-0.0112201799256478
  0
VERTEX
  5
1191
  8
DATA
  6
CONTINUOUS
 62
     7
 10
143.0123486950861
 20
135.50881943378491
 30
0.0
  0
VERTEX
  5
1192
  8
DATA
  6
CONTINUOUS
 62
     7
 10
143.01233268983441
 20
135.50891078792341
 30
0.0
 42
-0.0112220759620903
  0
VERTEX
  5
1193
  8
DATA
  6
CONTINUOUS
 62
     7
 10
143.0041706561382
 20
135.56255377788301
 30
0.0
  0
VERTEX
  5
1194
  8
DATA
  6
CONTINUOUS
 62
     7
 10
143.00414871510429
 20
135.56272351311071
 30
0.0
 42
-0.0110815862500131
  0
VERTEX
  5
1195
  8
DATA
  6
CONTINUOUS
 62
     7
 10
142.99835040186761
 20
135.61701771132221
 30
0.0
  0
VERTEX
  5
1196
  8
DATA
  6
CONTINUOUS
 62
     7
 10
142.99726366975219
 20
135.6298893240731
 30
0.0
 42
-0.0207733852166698
  0
VERTEX
  5
1197
  8
DATA
  6
CONTINUOUS
 62
     7
 10
142.99383337218319
 20
135.71019785189941
 30
0.0
  0
VERTEX
  5
1198
  8
DATA
  6
CONTINUOUS
 62
     7
 10
142.99381865478219
 20
135.7230263230918
 30
0.0
  0
VERTEX
  5
1199
  8
DATA
  6
CONTINUOUS
 62
     7
 10
142.99381767378301
 20
135.7247360988691
 30
0.0
  0
SEQEND
  5
119A
  8
DATA
  6
CONTINUOUS
 62
     7
  0
POLYLINE
  5
811
  8
DATA
  6
CONTINUOUS
 62
     7
 66
     1
 10
0.0
 20
0.0
 30
0.0
 70
   128
  0
VERTEX
  5
119B
  8
DATA
  6
CONTINUOUS
 62
     7
 10
151.0518832914542
 20
131.4827179813079
 30
0.0
  0
VERTEX
  5
119C
  8
DATA
  6
CONTINUOUS
 62
     7
 10
151.051882395349
 20
131.48637159528391
 30
0.0
 42
0.0090231328967832
  0
VERTEX
  5
119D
  8
DATA
  6
CONTINUOUS
 62
     7
 10
151.05149771256609
 20
131.50740046243351
 30
0.0
 42
0.0046198286454784
  0
VERTEX
  5
119E
  8
DATA
  6
CONTINUOUS
 62
     7
 10
151.05053934865441
 20
131.52841353178701
 30
0.0
  0
VERTEX
  5
119F
  8
DATA
  6
CONTINUOUS
 62
     7
 10
151.05052893269709
 20
131.52860335816121
 30
0.0
 42
0.0094475676548917
  0
VERTEX
  5
11A0
  8
DATA
  6
CONTINUOUS
 62
     7
 10
151.04895205512739
 20
131.5499574271451
 30
0.0
  0
VERTEX
  5
11A1
  8
DATA
  6
CONTINUOUS
 62
     7
 10
151.04894187683641
 20
131.55006702341771
 30
0.0
 42
0.0048569401462006
  0
VERTEX
  5
11A2
  8
DATA
  6
CONTINUOUS
 62
     7
 10
151.04673205160969
 20
131.5715890204882
 30
0.0
  0
VERTEX
  5
11A3
  8
DATA
  6
CONTINUOUS
 62
     7
 10
151.04671602885989
 20
131.57173144006791
 30
0.0
 42
0.0098069912780236
  0
VERTEX
  5
11A4
  8
DATA
  6
CONTINUOUS
 62
     7
 10
151.04383885922039
 20
131.59346037163081
 30
0.0
  0
VERTEX
  5
11A5
  8
DATA
  6
CONTINUOUS
 62
     7
 10
151.04301419503059
 20
131.59887071278911
 30
0.0
 42
0.0075659448853179
  0
VERTEX
  5
11A6
  8
DATA
  6
CONTINUOUS
 62
     7
 10
151.03992500259179
 20
131.61726491319271
 30
0.0
  0
VERTEX
  5
11A7
  8
DATA
  6
CONTINUOUS
 62
     7
 10
151.03959665470461
 20
131.6190538552755
 30
0.0
 42
0.0051350272566335
  0
VERTEX
  5
11A8
  8
DATA
  6
CONTINUOUS
 62
     7
 10
151.0367344167301
 20
131.6337940274029
 30
0.0
 42
0.0051682300175851
  0
VERTEX
  5
11A9
  8
DATA
  6
CONTINUOUS
 62
     7
 10
151.0335690181951
 20
131.64847232054029
 30
0.0
 42
0.0052066643775019
  0
VERTEX
  5
11AA
  8
DATA
  6
CONTINUOUS
 62
     7
 10
151.03009970591449
 20
131.66308200273409
 30
0.0
  0
VERTEX
  5
11AB
  8
DATA
  6
CONTINUOUS
 62
     7
 10
151.03008514140831
 20
131.6631406136533
 30
0.0
 42
0.005321396942123
  0
VERTEX
  5
11AC
  8
DATA
  6
CONTINUOUS
 62
     7
 10
151.0262786364224
 20
131.6777908766218
 30
0.0
  0
VERTEX
  5
11AD
  8
DATA
  6
CONTINUOUS
 62
     7
 10
151.02625402296221
 20
131.67788162815029
 30
0.0
 42
0.0053743806955899
  0
VERTEX
  5
11AE
  8
DATA
  6
CONTINUOUS
 62
     7
 10
151.0220838565011
 20
131.6926280557623
 30
0.0
  0
VERTEX
  5
11AF
  8
DATA
  6
CONTINUOUS
 62
     7
 10
151.02207436442669
 20
131.69266029395121
 30
0.0
 42
0.0053827436102952
  0
VERTEX
  5
11B0
  8
DATA
  6
CONTINUOUS
 62
     7
 10
151.01756843393019
 20
131.7073772829244
 30
0.0
 42
0.0054027389116832
  0
VERTEX
  5
11B1
  8
DATA
  6
CONTINUOUS
 62
     7
 10
151.01274629872691
 20
131.7219930753044
 30
0.0
  0
VERTEX
  5
11B2
  8
DATA
  6
CONTINUOUS
 62
     7
 10
151.0119621445553
 20
131.7242862506321
 30
0.0
 42
0.0087891097911805
  0
VERTEX
  5
11B3
  8
DATA
  6
CONTINUOUS
 62
     7
 10
151.0050792433363
 20
131.74331528817569
 30
0.0
  0
VERTEX
  5
11B4
  8
DATA
  6
CONTINUOUS
 62
     7
 10
151.004215006376
 20
131.7455793961125
 30
0.0
  0
VERTEX
  5
11B5
  8
DATA
  6
CONTINUOUS
 62
     7
 10
151.00419511597411
 20
131.7456315016131
 30
0.0
  0
SEQEND
  5
11B6
  8
DATA
  6
CONTINUOUS
 62
     7
  0
POLYLINE
  5
82E
  8
DATA
  6
CONTINUOUS
 62
     7
 66
     1
 10
0.0
 20
0.0
 30
0.0
 70
   128
  0
VERTEX
  5
11B7
  8
DATA
  6
CONTINUOUS
 62
     7
 10
151.00419511597411
 20
131.7456315016131
 30
0.0
  0
VERTEX
  5
11B8
  8
DATA
  6
CONTINUOUS
 62
     7
 10
151.0041706916939
 20
131.74569547016239
 30
0.0
  0
VERTEX
  5
11B9
  8
DATA
  6
CONTINUOUS
 62
     7
 10
151.0041462620631
 20
131.7457594345816
 30
0.0
  0
VERTEX
  5
11BA
  8
DATA
  6
CONTINUOUS
 62
     7
 10
151.0041218270816
 20
131.7458233948708
 30
0.0
  0
VERTEX
  5
11BB
  8
DATA
  6
CONTINUOUS
 62
     7
 10
151.00409738674961
 20
131.74588735103001
 30
0.0
  0
VERTEX
  5
11BC
  8
DATA
  6
CONTINUOUS
 62
     7
 10
151.00407294106699
 20
131.74595130305909
 30
0.0
  0
VERTEX
  5
11BD
  8
DATA
  6
CONTINUOUS
 62
     7
 10
151.00404849003391
 20
131.74601525095821
 30
0.0
  0
VERTEX
  5
11BE
  8
DATA
  6
CONTINUOUS
 62
     7
 10
151.0040240336501
 20
131.7460791947272
 30
0.0
  0
VERTEX
  5
11BF
  8
DATA
  6
CONTINUOUS
 62
     7
 10
151.00399957191581
 20
131.74614313436621
 30
0.0
  0
VERTEX
  5
11C0
  8
DATA
  6
CONTINUOUS
 62
     7
 10
151.0039751048308
 20
131.74620706987511
 30
0.0
  0
VERTEX
  5
11C1
  8
DATA
  6
CONTINUOUS
 62
     7
 10
151.0039506323954
 20
131.746271001254
 30
0.0
  0
VERTEX
  5
11C2
  8
DATA
  6
CONTINUOUS
 62
     7
 10
151.0039261546093
 20
131.74633492850279
 30
0.0
  0
VERTEX
  5
11C3
  8
DATA
  6
CONTINUOUS
 62
     7
 10
151.00390167147259
 20
131.74639885162159
 30
0.0
  0
VERTEX
  5
11C4
  8
DATA
  6
CONTINUOUS
 62
     7
 10
151.00387718298541
 20
131.74646277061029
 30
0.0
  0
VERTEX
  5
11C5
  8
DATA
  6
CONTINUOUS
 62
     7
 10
151.00385268914749
 20
131.74652668546901
 30
0.0
  0
VERTEX
  5
11C6
  8
DATA
  6
CONTINUOUS
 62
     7
 10
151.00382818995911
 20
131.74659059619771
 30
0.0
  0
VERTEX
  5
11C7
  8
DATA
  6
CONTINUOUS
 62
     7
 10
151.00380368542011
 20
131.7466545027963
 30
0.0
  0
VERTEX
  5
11C8
  8
DATA
  6
CONTINUOUS
 62
     7
 10
151.00377917553061
 20
131.7467184052648
 30
0.0
  0
VERTEX
  5
11C9
  8
DATA
  6
CONTINUOUS
 62
     7
 10
151.00375466029041
 20
131.74678230360331
 30
0.0
  0
VERTEX
  5
11CA
  8
DATA
  6
CONTINUOUS
 62
     7
 10
151.00373013969971
 20
131.74684619781181
 30
0.0
  0
VERTEX
  5
11CB
  8
DATA
  6
CONTINUOUS
 62
     7
 10
151.00370561375831
 20
131.7469100878902
 30
0.0
  0
VERTEX
  5
11CC
  8
DATA
  6
CONTINUOUS
 62
     7
 10
151.00368108246639
 20
131.74697397383861
 30
0.0
  0
VERTEX
  5
11CD
  8
DATA
  6
CONTINUOUS
 62
     7
 10
151.00365654582399
 20
131.74703785565691
 30
0.0
  0
VERTEX
  5
11CE
  8
DATA
  6
CONTINUOUS
 62
     7
 10
151.0036320038308
 20
131.7471017333452
 30
0.0
  0
VERTEX
  5
11CF
  8
DATA
  6
CONTINUOUS
 62
     7
 10
151.0036074564872
 20
131.74716560690331
 30
0.0
  0
VERTEX
  5
11D0
  8
DATA
  6
CONTINUOUS
 62
     7
 10
151.00358290379299
 20
131.74722947633151
 30
0.0
  0
VERTEX
  5
11D1
  8
DATA
  6
CONTINUOUS
 62
     7
 10
151.00355834574819
 20
131.7472933416297
 30
0.0
  0
VERTEX
  5
11D2
  8
DATA
  6
CONTINUOUS
 62
     7
 10
151.0035337823528
 20
131.7473572027977
 30
0.0
  0
VERTEX
  5
11D3
  8
DATA
  6
CONTINUOUS
 62
     7
 10
151.0035092136068
 20
131.74742105983569
 30
0.0
  0
VERTEX
  5
11D4
  8
DATA
  6
CONTINUOUS
 62
     7
 10
151.00348463951019
 20
131.74748491274369
 30
0.0
  0
VERTEX
  5
11D5
  8
DATA
  6
CONTINUOUS
 62
     7
 10
151.00346006006311
 20
131.7475487615217
 30
0.0
  0
VERTEX
  5
11D6
  8
DATA
  6
CONTINUOUS
 62
     7
 10
151.00343547526541
 20
131.74761260616961
 30
0.0
  0
VERTEX
  5
11D7
  8
DATA
  6
CONTINUOUS
 62
     7
 10
151.00341088511701
 20
131.74767644668739
 30
0.0
  0
VERTEX
  5
11D8
  8
DATA
  6
CONTINUOUS
 62
     7
 10
151.00338628961811
 20
131.74774028307519
 30
0.0
  0
VERTEX
  5
11D9
  8
DATA
  6
CONTINUOUS
 62
     7
 10
151.00336168876871
 20
131.74780411533291
 30
0.0
  0
VERTEX
  5
11DA
  8
DATA
  6
CONTINUOUS
 62
     7
 10
151.00333708256861
 20
131.7478679434607
 30
0.0
  0
VERTEX
  5
11DB
  8
DATA
  6
CONTINUOUS
 62
     7
 10
151.00331247101801
 20
131.74793176745831
 30
0.0
  0
VERTEX
  5
11DC
  8
DATA
  6
CONTINUOUS
 62
     7
 10
151.00328785411671
 20
131.7479955873259
 30
0.0
  0
VERTEX
  5
11DD
  8
DATA
  6
CONTINUOUS
 62
     7
 10
151.00326323186491
 20
131.74805940306351
 30
0.0
  0
VERTEX
  5
11DE
  8
DATA
  6
CONTINUOUS
 62
     7
 10
151.00323860426249
 20
131.74812321467101
 30
0.0
  0
VERTEX
  5
11DF
  8
DATA
  6
CONTINUOUS
 62
     7
 10
151.00321397130961
 20
131.74818702214839
 30
0.0
  0
VERTEX
  5
11E0
  8
DATA
  6
CONTINUOUS
 62
     7
 10
151.00318933300599
 20
131.7482508254958
 30
0.0
  0
VERTEX
  5
11E1
  8
DATA
  6
CONTINUOUS
 62
     7
 10
151.00316468935191
 20
131.7483146247132
 30
0.0
  0
VERTEX
  5
11E2
  8
DATA
  6
CONTINUOUS
 62
     7
 10
151.0031400403472
 20
131.74837841980059
 30
0.0
  0
VERTEX
  5
11E3
  8
DATA
  6
CONTINUOUS
 62
     7
 10
151.00311538599189
 20
131.74844221075779
 30
0.0
  0
VERTEX
  5
11E4
  8
DATA
  6
CONTINUOUS
 62
     7
 10
151.00309072628599
 20
131.74850599758511
 30
0.0
  0
VERTEX
  5
11E5
  8
DATA
  6
CONTINUOUS
 62
     7
 10
151.0030660612295
 20
131.74856978028231
 30
0.0
  0
VERTEX
  5
11E6
  8
DATA
  6
CONTINUOUS
 62
     7
 10
151.0030413908224
 20
131.74863355884941
 30
0.0
  0
VERTEX
  5
11E7
  8
DATA
  6
CONTINUOUS
 62
     7
 10
151.0030167150648
 20
131.74869733328649
 30
0.0
  0
VERTEX
  5
11E8
  8
DATA
  6
CONTINUOUS
 62
     7
 10
151.00299203395659
 20
131.74876110359349
 30
0.0
  0
VERTEX
  5
11E9
  8
DATA
  6
CONTINUOUS
 62
     7
 10
151.00296734749779
 20
131.74882486977049
 30
0.0
  0
VERTEX
  5
11EA
  8
DATA
  6
CONTINUOUS
 62
     7
 10
151.00294265568851
 20
131.74888863181749
 30
0.0
  0
VERTEX
  5
11EB
  8
DATA
  6
CONTINUOUS
 62
     7
 10
151.0029179585284
 20
131.74895238973431
 30
0.0
  0
VERTEX
  5
11EC
  8
DATA
  6
CONTINUOUS
 62
     7
 10
151.0028932560179
 20
131.7490161435212
 30
0.0
  0
VERTEX
  5
11ED
  8
DATA
  6
CONTINUOUS
 62
     7
 10
151.00286854815681
 20
131.74907989317799
 30
0.0
  0
VERTEX
  5
11EE
  8
DATA
  6
CONTINUOUS
 62
     7
 10
151.00284383494511
 20
131.74914363870479
 30
0.0
  0
VERTEX
  5
11EF
  8
DATA
  6
CONTINUOUS
 62
     7
 10
151.0028191163828
 20
131.7492073801015
 30
0.0
  0
VERTEX
  5
11F0
  8
DATA
  6
CONTINUOUS
 62
     7
 10
151.00279439246989
 20
131.7492711173681
 30
0.0
  0
VERTEX
  5
11F1
  8
DATA
  6
CONTINUOUS
 62
     7
 10
151.00276966320641
 20
131.74933485050471
 30
0.0
  0
VERTEX
  5
11F2
  8
DATA
  6
CONTINUOUS
 62
     7
 10
151.00274492859239
 20
131.74939857951131
 30
0.0
  0
VERTEX
  5
11F3
  8
DATA
  6
CONTINUOUS
 62
     7
 10
151.00272018862779
 20
131.74946230438781
 30
0.0
  0
VERTEX
  5
11F4
  8
DATA
  6
CONTINUOUS
 62
     7
 10
151.0026954433126
 20
131.74952602513429
 30
0.0
  0
VERTEX
  5
11F5
  8
DATA
  6
CONTINUOUS
 62
     7
 10
151.0026706926468
 20
131.74958974175081
 30
0.0
  0
VERTEX
  5
11F6
  8
DATA
  6
CONTINUOUS
 62
     7
 10
151.00264593663039
 20
131.74965345423709
 30
0.0
  0
VERTEX
  5
11F7
  8
DATA
  6
CONTINUOUS
 62
     7
 10
151.0026211752635
 20
131.7497171625935
 30
0.0
  0
VERTEX
  5
11F8
  8
DATA
  6
CONTINUOUS
 62
     7
 10
151.0026211752635
 20
131.7497171625935
 30
0.0
  0
VERTEX
  5
11F9
  8
DATA
  6
CONTINUOUS
 62
     7
 10
151.00261974226129
 20
131.74972084901921
 30
0.0
  0
SEQEND
  5
11FA
  8
DATA
  6
CONTINUOUS
 62
     7
  0
POLYLINE
  5
873
  8
DATA
  6
CONTINUOUS
 62
     7
 66
     1
 10
0.0
 20
0.0
 30
0.0
 70
   128
  0
VERTEX
  5
11FB
  8
DATA
  6
CONTINUOUS
 62
     7
 10
151.00261974226129
 20
131.74972084901921
 30
0.0
  0
VERTEX
  5
11FC
  8
DATA
  6
CONTINUOUS
 62
     7
 10
151.0025977753435
 20
131.7497773416917
 30
0.0
  0
VERTEX
  5
11FD
  8
DATA
  6
CONTINUOUS
 62
     7
 10
151.00257551009881
 20
131.74983457641159
 30
0.0
  0
VERTEX
  5
11FE
  8
DATA
  6
CONTINUOUS
 62
     7
 10
151.00255294652749
 20
131.749892553179
 30
0.0
  0
VERTEX
  5
11FF
  8
DATA
  6
CONTINUOUS
 62
     7
 10
151.0025300846294
 20
131.74995127199381
 30
0.0
  0
VERTEX
  5
1200
  8
DATA
  6
CONTINUOUS
 62
     7
 10
151.0025069244046
 20
131.750010732856
 30
0.0
  0
VERTEX
  5
1201
  8
DATA
  6
CONTINUOUS
 62
     7
 10
151.00248346585309
 20
131.75007093576559
 30
0.0
  0
VERTEX
  5
1202
  8
DATA
  6
CONTINUOUS
 62
     7
 10
151.0024597089749
 20
131.75013188072259
 30
0.0
  0
VERTEX
  5
1203
  8
DATA
  6
CONTINUOUS
 62
     7
 10
151.00243565376991
 20
131.75019356772711
 30
0.0
  0
VERTEX
  5
1204
  8
DATA
  6
CONTINUOUS
 62
     7
 10
151.00241130023821
 20
131.750255996779
 30
0.0
  0
VERTEX
  5
1205
  8
DATA
  6
CONTINUOUS
 62
     7
 10
151.00238664837971
 20
131.75031916787819
 30
0.0
  0
VERTEX
  5
1206
  8
DATA
  6
CONTINUOUS
 62
     7
 10
151.00236169819459
 20
131.75038308102489
 30
0.0
  0
VERTEX
  5
1207
  8
DATA
  6
CONTINUOUS
 62
     7
 10
151.0023364496827
 20
131.750447736219
 30
0.0
  0
VERTEX
  5
1208
  8
DATA
  6
CONTINUOUS
 62
     7
 10
151.00231090284399
 20
131.7505131334606
 30
0.0
  0
VERTEX
  5
1209
  8
DATA
  6
CONTINUOUS
 62
     7
 10
151.00228505767871
 20
131.75057927274949
 30
0.0
  0
VERTEX
  5
120A
  8
DATA
  6
CONTINUOUS
 62
     7
 10
151.0022589141866
 20
131.7506461540859
 30
0.0
  0
VERTEX
  5
120B
  8
DATA
  6
CONTINUOUS
 62
     7
 10
151.00223247236781
 20
131.75071377746971
 30
0.0
  0
VERTEX
  5
120C
  8
DATA
  6
CONTINUOUS
 62
     7
 10
151.00220573222219
 20
131.7507821429009
 30
0.0
  0
VERTEX
  5
120D
  8
DATA
  6
CONTINUOUS
 62
     7
 10
151.00217869375001
 20
131.7508512503795
 30
0.0
  0
VERTEX
  5
120E
  8
DATA
  6
CONTINUOUS
 62
     7
 10
151.002151356951
 20
131.7509210999055
 30
0.0
  0
VERTEX
  5
120F
  8
DATA
  6
CONTINUOUS
 62
     7
 10
151.00212372182531
 20
131.7509916914789
 30
0.0
  0
VERTEX
  5
1210
  8
DATA
  6
CONTINUOUS
 62
     7
 10
151.0020957883728
 20
131.7510630250998
 30
0.0
  0
VERTEX
  5
1211
  8
DATA
  6
CONTINUOUS
 62
     7
 10
151.0020675565936
 20
131.7511351007681
 30
0.0
  0
VERTEX
  5
1212
  8
DATA
  6
CONTINUOUS
 62
     7
 10
151.00203902648769
 20
131.7512079184838
 30
0.0
  0
VERTEX
  5
1213
  8
DATA
  6
CONTINUOUS
 62
     7
 10
151.0020101980551
 20
131.75128147824691
 30
0.0
  0
VERTEX
  5
1214
  8
DATA
  6
CONTINUOUS
 62
     7
 10
151.00198107129569
 20
131.75135578005739
 30
0.0
  0
VERTEX
  5
1215
  8
DATA
  6
CONTINUOUS
 62
     7
 10
151.00195164620959
 20
131.7514308239154
 30
0.0
  0
VERTEX
  5
1216
  8
DATA
  6
CONTINUOUS
 62
     7
 10
151.00192192279681
 20
131.75150660982081
 30
0.0
  0
VERTEX
  5
1217
  8
DATA
  6
CONTINUOUS
 62
     7
 10
151.00189190105721
 20
131.75158313777351
 30
0.0
  0
VERTEX
  5
1218
  8
DATA
  6
CONTINUOUS
 62
     7
 10
151.001861580991
 20
131.7516604077737
 30
0.0
  0
VERTEX
  5
1219
  8
DATA
  6
CONTINUOUS
 62
     7
 10
151.00183096259789
 20
131.75173841982129
 30
0.0
  0
VERTEX
  5
121A
  8
DATA
  6
CONTINUOUS
 62
     7
 10
151.00180004587821
 20
131.75181717391629
 30
0.0
  0
VERTEX
  5
121B
  8
DATA
  6
CONTINUOUS
 62
     7
 10
151.00176883083171
 20
131.75189667005881
 30
0.0
  0
VERTEX
  5
121C
  8
DATA
  6
CONTINUOUS
 62
     7
 10
151.00173731745841
 20
131.75197690824871
 30
0.0
  0
VERTEX
  5
121D
  8
DATA
  6
CONTINUOUS
 62
     7
 10
151.00170550575859
 20
131.75205788848601
 30
0.0
  0
VERTEX
  5
121E
  8
DATA
  6
CONTINUOUS
 62
     7
 10
151.0016733957319
 20
131.7521396107706
 30
0.0
  0
VERTEX
  5
121F
  8
DATA
  6
CONTINUOUS
 62
     7
 10
151.00164098737849
 20
131.75222207510279
 30
0.0
  0
VERTEX
  5
1220
  8
DATA
  6
CONTINUOUS
 62
     7
 10
151.00160828069841
 20
131.75230528148231
 30
0.0
  0
VERTEX
  5
1221
  8
DATA
  6
CONTINUOUS
 62
     7
 10
151.00157527569161
 20
131.7523892299092
 30
0.0
  0
VERTEX
  5
1222
  8
DATA
  6
CONTINUOUS
 62
     7
 10
151.0015419723579
 20
131.75247392038361
 30
0.0
  0
VERTEX
  5
1223
  8
DATA
  6
CONTINUOUS
 62
     7
 10
151.00150837069771
 20
131.75255935290539
 30
0.0
  0
VERTEX
  5
1224
  8
DATA
  6
CONTINUOUS
 62
     7
 10
151.0014744707106
 20
131.75264552747461
 30
0.0
  0
VERTEX
  5
1225
  8
DATA
  6
CONTINUOUS
 62
     7
 10
151.00144027239691
 20
131.75273244409121
 30
0.0
  0
VERTEX
  5
1226
  8
DATA
  6
CONTINUOUS
 62
     7
 10
151.00140577575641
 20
131.75282010275521
 30
0.0
  0
VERTEX
  5
1227
  8
DATA
  6
CONTINUOUS
 62
     7
 10
151.0013709807892
 20
131.7529085034667
 30
0.0
  0
VERTEX
  5
1228
  8
DATA
  6
CONTINUOUS
 62
     7
 10
151.0013358874952
 20
131.75299764622551
 30
0.0
  0
VERTEX
  5
1229
  8
DATA
  6
CONTINUOUS
 62
     7
 10
151.0013004958746
 20
131.75308753103181
 30
0.0
  0
VERTEX
  5
122A
  8
DATA
  6
CONTINUOUS
 62
     7
 10
151.00126480592709
 20
131.75317815788549
 30
0.0
  0
VERTEX
  5
122B
  8
DATA
  6
CONTINUOUS
 62
     7
 10
151.00122881765299
 20
131.7532695267866
 30
0.0
  0
VERTEX
  5
122C
  8
DATA
  6
CONTINUOUS
 62
     7
 10
151.0011925310522
 20
131.7533616377352
 30
0.0
  0
VERTEX
  5
122D
  8
DATA
  6
CONTINUOUS
 62
     7
 10
151.0011559461245
 20
131.75345449073109
 30
0.0
  0
VERTEX
  5
122E
  8
DATA
  6
CONTINUOUS
 62
     7
 10
151.00111906287029
 20
131.7535480857745
 30
0.0
  0
VERTEX
  5
122F
  8
DATA
  6
CONTINUOUS
 62
     7
 10
151.0010818812892
 20
131.75364242286531
 30
0.0
  0
VERTEX
  5
1230
  8
DATA
  6
CONTINUOUS
 62
     7
 10
151.00104440138151
 20
131.7537375020035
 30
0.0
  0
VERTEX
  5
1231
  8
DATA
  6
CONTINUOUS
 62
     7
 10
151.00100662314691
 20
131.7538333231891
 30
0.0
  0
VERTEX
  5
1232
  8
DATA
  6
CONTINUOUS
 62
     7
 10
151.00096854658571
 20
131.7539298864221
 30
0.0
  0
VERTEX
  5
1233
  8
DATA
  6
CONTINUOUS
 62
     7
 10
151.00093017169769
 20
131.75402719170259
 30
0.0
  0
VERTEX
  5
1234
  8
DATA
  6
CONTINUOUS
 62
     7
 10
151.0008914984831
 20
131.7541252390304
 30
0.0
  0
VERTEX
  5
1235
  8
DATA
  6
CONTINUOUS
 62
     7
 10
151.00085252694171
 20
131.7542240284057
 30
0.0
  0
VERTEX
  5
1236
  8
DATA
  6
CONTINUOUS
 62
     7
 10
151.0008132570735
 20
131.75432355982841
 30
0.0
  0
VERTEX
  5
1237
  8
DATA
  6
CONTINUOUS
 62
     7
 10
151.0007736888787
 20
131.7544238332986
 30
0.0
  0
VERTEX
  5
1238
  8
DATA
  6
CONTINUOUS
 62
     7
 10
151.00073382235701
 20
131.754524848816
 30
0.0
  0
VERTEX
  5
1239
  8
DATA
  6
CONTINUOUS
 62
     7
 10
151.00069365750869
 20
131.75462660638101
 30
0.0
  0
VERTEX
  5
123A
  8
DATA
  6
CONTINUOUS
 62
     7
 10
151.00065319433369
 20
131.75472910599339
 30
0.0
  0
VERTEX
  5
123B
  8
DATA
  6
CONTINUOUS
 62
     7
 10
151.00061243283179
 20
131.75483234765309
 30
0.0
  0
VERTEX
  5
123C
  8
DATA
  6
CONTINUOUS
 62
     7
 10
151.00061243283179
 20
131.75483234765309
 30
0.0
  0
VERTEX
  5
123D
  8
DATA
  6
CONTINUOUS
 62
     7
 10
151.00061243283179
 20
131.75483234765309
 30
0.0
 42
0.0035807071592296
  0
VERTEX
  5
123E
  8
DATA
  6
CONTINUOUS
 62
     7
 10
150.9979467975113
 20
131.7614444694328
 30
0.0
  0
VERTEX
  5
123F
  8
DATA
  6
CONTINUOUS
 62
     7
 10
150.99731621178111
 20
131.76297690218681
 30
0.0
  0
VERTEX
  5
1240
  8
DATA
  6
CONTINUOUS
 62
     7
 10
150.9973088794039
 20
131.7629947206791
 30
0.0
  0
SEQEND
  5
1241
  8
DATA
  6
CONTINUOUS
 62
     7
  0
POLYLINE
  5
8BB
  8
DATA
  6
CONTINUOUS
 62
     7
 66
     1
 10
0.0
 20
0.0
 30
0.0
 70
   128
  0
VERTEX
  5
1242
  8
DATA
  6
CONTINUOUS
 62
     7
 10
150.9973088794039
 20
131.7629947206791
 30
0.0
  0
VERTEX
  5
1243
  8
DATA
  6
CONTINUOUS
 62
     7
 10
150.99648873795721
 20
131.76498685878369
 30
0.0
 42
0.0063271900488302
  0
VERTEX
  5
1244
  8
DATA
  6
CONTINUOUS
 62
     7
 10
150.99077956297941
 20
131.77837088612691
 30
0.0
  0
VERTEX
  5
1245
  8
DATA
  6
CONTINUOUS
 62
     7
 10
150.9899234742839
 20
131.780309470681
 30
0.0
 42
0.0034777453422086
  0
VERTEX
  5
1246
  8
DATA
  6
CONTINUOUS
 62
     7
 10
150.9856916849505
 20
131.78971464542639
 30
0.0
  0
VERTEX
  5
1247
  8
DATA
  6
CONTINUOUS
 62
     7
 10
150.9856451205338
 20
131.789816240672
 30
0.0
 42
0.0033898379296171
  0
VERTEX
  5
1248
  8
DATA
  6
CONTINUOUS
 62
     7
 10
150.98137905009901
 20
131.7989598674921
 30
0.0
  0
VERTEX
  5
1249
  8
DATA
  6
CONTINUOUS
 62
     7
 10
150.9813509182471
 20
131.79901911190711
 30
0.0
 42
0.0032583381356149
  0
VERTEX
  5
124A
  8
DATA
  6
CONTINUOUS
 62
     7
 10
150.9770206778305
 20
131.8079871079149
 30
0.0
  0
VERTEX
  5
124B
  8
DATA
  6
CONTINUOUS
 62
     7
 10
150.97698630507881
 20
131.8080571254493
 30
0.0
 42
0.0032116760603317
  0
VERTEX
  5
124C
  8
DATA
  6
CONTINUOUS
 62
     7
 10
150.9726100241613
 20
131.8168287566304
 30
0.0
  0
VERTEX
  5
124D
  8
DATA
  6
CONTINUOUS
 62
     7
 10
150.97257478673151
 20
131.81689826379741
 30
0.0
 42
0.0030673716571341
  0
VERTEX
  5
124E
  8
DATA
  6
CONTINUOUS
 62
     7
 10
150.96816001603671
 20
131.82547568622169
 30
0.0
  0
VERTEX
  5
124F
  8
DATA
  6
CONTINUOUS
 62
     7
 10
150.96812398698901
 20
131.8255446365404
 30
0.0
  0
SEQEND
  5
1250
  8
DATA
  6
CONTINUOUS
 62
     7
  0
POLYLINE
  5
8CB
  8
DATA
  6
CONTINUOUS
 62
     7
 66
     1
 10
0.0
 20
0.0
 30
0.0
 70
   128
  0
VERTEX
  5
1251
  8
DATA
  6
CONTINUOUS
 62
     7
 10
146.21286978120671
 20
130.8684510985382
 30
0.0
  0
VERTEX
  5
1252
  8
DATA
  6
CONTINUOUS
 62
     7
 10
146.26467474947509
 20
130.86461149661011
 30
0.0
 42
0.0023796284913491
  0
VERTEX
  5
1253
  8
DATA
  6
CONTINUOUS
 62
     7
 10
146.6658330758527
 20
130.83679809059331
 30
0.0
  0
VERTEX
  5
1254
  8
DATA
  6
CONTINUOUS
 62
     7
 10
146.7260563790224
 20
130.8329105465497
 30
0.0
 42
0.0016166517822628
  0
VERTEX
  5
1255
  8
DATA
  6
CONTINUOUS
 62
     7
 10
147.0069561513543
 20
130.81568969160611
 30
0.0
  0
VERTEX
  5
1256
  8
DATA
  6
CONTINUOUS
 62
     7
 10
147.02583305385861
 20
130.81459367548359
 30
0.0
 42
0.0015131409500644
  0
VERTEX
  5
1257
  8
DATA
  6
CONTINUOUS
 62
     7
 10
147.26907520683599
 20
130.8012092104041
 30
0.0
  0
VERTEX
  5
1258
  8
DATA
  6
CONTINUOUS
 62
     7
 10
147.2820993104007
 20
130.8005320830483
 30
0.0
 42
0.0014724192759845
  0
VERTEX
  5
1259
  8
DATA
  6
CONTINUOUS
 62
     7
 10
147.49936513669419
 20
130.7898778078592
 30
0.0
 42
0.0014287822694139
  0
VERTEX
  5
125A
  8
DATA
  6
CONTINUOUS
 62
     7
 10
147.71668918059851
 20
130.78048436558751
 30
0.0
  0
VERTEX
  5
125B
  8
DATA
  6
CONTINUOUS
 62
     7
 10
147.7593160138951
 20
130.77876391879559
 30
0.0
 42
0.0029955955918463
  0
VERTEX
  5
125C
  8
DATA
  6
CONTINUOUS
 62
     7
 10
148.04130389896929
 20
130.7690745053429
 30
0.0
  0
VERTEX
  5
125D
  8
DATA
  6
CONTINUOUS
 62
     7
 10
148.08945278575641
 20
130.76770880963321
 30
0.0
 42
0.0016692279691103
  0
VERTEX
  5
125E
  8
DATA
  6
CONTINUOUS
 62
     7
 10
148.27521646742051
 20
130.76306041168559
 30
0.0
 42
0.0018335977161659
  0
VERTEX
  5
125F
  8
DATA
  6
CONTINUOUS
 62
     7
 10
148.4610079413639
 20
130.75971351526741
 30
0.0
  0
VERTEX
  5
1260
  8
DATA
  6
CONTINUOUS
 62
     7
 10
148.48629180705811
 20
130.75935079021971
 30
0.0
 42
0.0034463841627261
  0
VERTEX
  5
1261
  8
DATA
  6
CONTINUOUS
 62
     7
 10
148.72267542896941
 20
130.7575891365361
 30
0.0
  0
VERTEX
  5
1262
  8
DATA
  6
CONTINUOUS
 62
     7
 10
148.74287443452701
 20
130.75757783234209
 30
0.0
 42
0.0026599964734713
  0
VERTEX
  5
1263
  8
DATA
  6
CONTINUOUS
 62
     7
 10
148.9433153267891
 20
130.75853200621521
 30
0.0
  0
VERTEX
  5
1264
  8
DATA
  6
CONTINUOUS
 62
     7
 10
148.96311689220391
 20
130.75873161908709
 30
0.0
 42
0.0033108201829503
  0
VERTEX
  5
1265
  8
DATA
  6
CONTINUOUS
 62
     7
 10
149.1239317903561
 20
130.7614177889881
 30
0.0
  0
VERTEX
  5
1266
  8
DATA
  6
CONTINUOUS
 62
     7
 10
149.14772227951801
 20
130.76197276833901
 30
0.0
 42
0.0019692171061847
  0
VERTEX
  5
1267
  8
DATA
  6
CONTINUOUS
 62
     7
 10
149.2609262545848
 20
130.76505969776929
 30
0.0
 42
0.0022940987011266
  0
VERTEX
  5
1268
  8
DATA
  6
CONTINUOUS
 62
     7
 10
149.37409948027229
 20
130.7691117391698
 30
0.0
  0
VERTEX
  5
1269
  8
DATA
  6
CONTINUOUS
 62
     7
 10
149.37598046475799
 20
130.76918772858281
 30
0.0
 42
0.0027325126279068
  0
VERTEX
  5
126A
  8
DATA
  6
CONTINUOUS
 62
     7
 10
149.4928677636268
 20
130.7745498094524
 30
0.0
  0
VERTEX
  5
126B
  8
DATA
  6
CONTINUOUS
 62
     7
 10
149.49542142144011
 20
130.77468094458101
 30
0.0
 42
0.0033764671652929
  0
VERTEX
  5
126C
  8
DATA
  6
CONTINUOUS
 62
     7
 10
149.6173388768793
 20
130.78176740247449
 30
0.0
  0
VERTEX
  5
126D
  8
DATA
  6
CONTINUOUS
 62
     7
 10
149.61943569520199
 20
130.78190349339539
 30
0.0
 42
0.0039311033146667
  0
VERTEX
  5
126E
  8
DATA
  6
CONTINUOUS
 62
     7
 10
149.74542681489021
 20
130.79107602661151
 30
0.0
  0
VERTEX
  5
126F
  8
DATA
  6
CONTINUOUS
 62
     7
 10
149.7475935061978
 20
130.79125090360631
 30
0.0
 42
0.0044306888795805
  0
VERTEX
  5
1270
  8
DATA
  6
CONTINUOUS
 62
     7
 10
149.8707069953339
 20
130.80228645256341
 30
0.0
  0
VERTEX
  5
1271
  8
DATA
  6
CONTINUOUS
 62
     7
 10
149.88746861193039
 20
130.8039387634156
 30
0.0
 42
0.0049478396530577
  0
VERTEX
  5
1272
  8
DATA
  6
CONTINUOUS
 62
     7
 10
149.97686502039301
 20
130.8136453270665
 30
0.0
  0
VERTEX
  5
1273
  8
DATA
  6
CONTINUOUS
 62
     7
 10
149.99285574547929
 20
130.81554186316569
 30
0.0
 42
0.0028278862168959
  0
VERTEX
  5
1274
  8
DATA
  6
CONTINUOUS
 62
     7
 10
150.05013436702859
 20
130.82266397190429
 30
0.0
 42
0.0027878326348927
  0
VERTEX
  5
1275
  8
DATA
  6
CONTINUOUS
 62
     7
 10
150.1073294120242
 20
130.83042894098671
 30
0.0
  0
VERTEX
  5
1276
  8
DATA
  6
CONTINUOUS
 62
     7
 10
150.12061629656671
 20
130.83230831430669
 30
0.0
 42
0.0066873301279284
  0
VERTEX
  5
1277
  8
DATA
  6
CONTINUOUS
 62
     7
 10
150.20064982326039
 20
130.84472267183199
 30
0.0
  0
VERTEX
  5
1278
  8
DATA
  6
CONTINUOUS
 62
     7
 10
150.2027718043162
 20
130.84508094714161
 30
0.0
 42
0.0035731921842812
  0
VERTEX
  5
1279
  8
DATA
  6
CONTINUOUS
 62
     7
 10
150.2783002180899
 20
130.8583889851154
 30
0.0
  0
VERTEX
  5
127A
  8
DATA
  6
CONTINUOUS
 62
     7
 10
150.27906481991411
 20
130.8585293482169
 30
0.0
 42
0.0083786299999595
  0
VERTEX
  5
127B
  8
DATA
  6
CONTINUOUS
 62
     7
 10
150.35272087557809
 20
130.873330782284
 30
0.0
  0
VERTEX
  5
127C
  8
DATA
  6
CONTINUOUS
 62
     7
 10
150.36598073024371
 20
130.876227364176
 30
0.0
 42
0.0046800061171269
  0
VERTEX
  5
127D
  8
DATA
  6
CONTINUOUS
 62
     7
 10
150.41276905513939
 20
130.8869079436738
 30
0.0
  0
VERTEX
  5
127E
  8
DATA
  6
CONTINUOUS
 62
     7
 10
150.41317548116029
 20
130.88700473139539
 30
0.0
 42
0.0050688661744874
  0
VERTEX
  5
127F
  8
DATA
  6
CONTINUOUS
 62
     7
 10
150.45893552120879
 20
130.8983935992936
 30
0.0
  0
VERTEX
  5
1280
  8
DATA
  6
CONTINUOUS
 62
     7
 10
150.4592146324172
 20
130.89846607765921
 30
0.0
 42
0.0056762107939257
  0
VERTEX
  5
1281
  8
DATA
  6
CONTINUOUS
 62
     7
 10
150.5041622802147
 20
130.91068418487191
 30
0.0
  0
VERTEX
  5
1282
  8
DATA
  6
CONTINUOUS
 62
     7
 10
150.50496970167521
 20
130.91091354031479
 30
0.0
 42
0.0061293984672113
  0
VERTEX
  5
1283
  8
DATA
  6
CONTINUOUS
 62
     7
 10
150.54800691180691
 20
130.92371082197121
 30
0.0
  0
VERTEX
  5
1284
  8
DATA
  6
CONTINUOUS
 62
     7
 10
150.54853320677569
 20
130.92387436598389
 30
0.0
 42
0.0066613780263147
  0
VERTEX
  5
1285
  8
DATA
  6
CONTINUOUS
 62
     7
 10
150.5901803747692
 20
130.93742704353809
 30
0.0
  0
VERTEX
  5
1286
  8
DATA
  6
CONTINUOUS
 62
     7
 10
150.5903044095422
 20
130.93746924202119
 30
0.0
 42
0.0075514588155988
  0
VERTEX
  5
1287
  8
DATA
  6
CONTINUOUS
 62
     7
 10
150.63130178575659
 20
130.9521116175975
 30
0.0
  0
VERTEX
  5
1288
  8
DATA
  6
CONTINUOUS
 62
     7
 10
150.6320924757629
 20
130.9524075544717
 30
0.0
 42
0.0083091663113495
  0
VERTEX
  5
1289
  8
DATA
  6
CONTINUOUS
 62
     7
 10
150.67103275810641
 20
130.96772443885209
 30
0.0
  0
VERTEX
  5
128A
  8
DATA
  6
CONTINUOUS
 62
     7
 10
150.67169238999361
 20
130.9679966425619
 30
0.0
 42
0.0089178934843201
  0
VERTEX
  5
128B
  8
DATA
  6
CONTINUOUS
 62
     7
 10
150.70877200907461
 20
130.98407768355611
 30
0.0
 42
0.0102719025835924
  0
VERTEX
  5
128C
  8
DATA
  6
CONTINUOUS
 62
     7
 10
150.74520625204741
 20
131.00156908169589
 30
0.0
  0
VERTEX
  5
128D
  8
DATA
  6
CONTINUOUS
 62
     7
 10
150.74633670293051
 20
131.0021406527249
 30
0.0
 42
0.0116032219504966
  0
VERTEX
  5
128E
  8
DATA
  6
CONTINUOUS
 62
     7
 10
150.7797366977972
 20
131.02001306864139
 30
0.0
  0
VERTEX
  5
128F
  8
DATA
  6
CONTINUOUS
 62
     7
 10
150.78087619001059
 20
131.0206572612785
 30
0.0
 42
0.0114246055828995
  0
VERTEX
  5
1290
  8
DATA
  6
CONTINUOUS
 62
     7
 10
150.8111698728423
 20
131.03870876850991
 30
0.0
  0
VERTEX
  5
1291
  8
DATA
  6
CONTINUOUS
 62
     7
 10
150.81120568309819
 20
131.03873123147889
 30
0.0
 42
0.0128076143614856
  0
VERTEX
  5
1292
  8
DATA
  6
CONTINUOUS
 62
     7
 10
150.84051693616391
 20
131.05818102751701
 30
0.0
  0
VERTEX
  5
1293
  8
DATA
  6
CONTINUOUS
 62
     7
 10
150.84150456851759
 20
131.05887345543479
 30
0.0
 42
0.0143258986662639
  0
VERTEX
  5
1294
  8
DATA
  6
CONTINUOUS
 62
     7
 10
150.86778146455049
 20
131.07844236811491
 30
0.0
 42
0.0134412790471017
  0
VERTEX
  5
1295
  8
DATA
  6
CONTINUOUS
 62
     7
 10
150.89293297345759
 20
131.0994405747187
 30
0.0
  0
VERTEX
  5
1296
  8
DATA
  6
CONTINUOUS
 62
     7
 10
150.8944265485103
 20
131.1007572276132
 30
0.0
 42
0.0202583197710939
  0
VERTEX
  5
1297
  8
DATA
  6
CONTINUOUS
 62
     7
 10
150.9199496056315
 20
131.12516355581499
 30
0.0
  0
VERTEX
  5
1298
  8
DATA
  6
CONTINUOUS
 62
     7
 10
150.92245044441071
 20
131.12775685655541
 30
0.0
 42
0.0153207569504807
  0
VERTEX
  5
1299
  8
DATA
  6
CONTINUOUS
 62
     7
 10
150.9413440411094
 20
131.1485901806806
 30
0.0
  0
VERTEX
  5
129A
  8
DATA
  6
CONTINUOUS
 62
     7
 10
150.94161234026629
 20
131.14890488349579
 30
0.0
 42
0.0150442097546223
  0
VERTEX
  5
129B
  8
DATA
  6
CONTINUOUS
 62
     7
 10
150.95868988799131
 20
131.17020181905991
 30
0.0
 42
0.0154624957433584
  0
VERTEX
  5
129C
  8
DATA
  6
CONTINUOUS
 62
     7
 10
150.97443633680379
 20
131.19249918278089
 30
0.0
 42
0.0160692124924943
  0
VERTEX
  5
129D
  8
DATA
  6
CONTINUOUS
 62
     7
 10
150.98874540989809
 20
131.21574301176739
 30
0.0
  0
VERTEX
  5
129E
  8
DATA
  6
CONTINUOUS
 62
     7
 10
150.98948953212431
 20
131.21704361052889
 30
0.0
 42
0.0195888276308885
  0
VERTEX
  5
129F
  8
DATA
  6
CONTINUOUS
 62
     7
 10
151.00348717089011
 20
131.24389723206679
 30
0.0
  0
VERTEX
  5
12A0
  8
DATA
  6
CONTINUOUS
 62
     7
 10
151.00357746020131
 20
131.2440883556755
 30
0.0
 42
0.0159236904496996
  0
VERTEX
  5
12A1
  8
DATA
  6
CONTINUOUS
 62
     7
 10
151.01580571578759
 20
131.2722623662944
 30
0.0
  0
VERTEX
  5
12A2
  8
DATA
  6
CONTINUOUS
 62
     7
 10
151.0168184656537
 20
131.2748153927302
 30
0.0
 42
0.0238364900484188
  0
VERTEX
  5
12A3
  8
DATA
  6
CONTINUOUS
 62
     7
 10
151.0285420077044
 20
131.30904420682651
 30
0.0
  0
VERTEX
  5
12A4
  8
DATA
  6
CONTINUOUS
 62
     7
 10
151.02966235318931
 20
131.3129065878388
 30
0.0
 42
0.0143333000193446
  0
VERTEX
  5
12A5
  8
DATA
  6
CONTINUOUS
 62
     7
 10
151.0368872178685
 20
131.340776265046
 30
0.0
 42
0.013410640714517
  0
VERTEX
  5
12A6
  8
DATA
  6
CONTINUOUS
 62
     7
 10
151.04255571813761
 20
131.36900516090711
 30
0.0
  0
VERTEX
  5
12A7
  8
DATA
  6
CONTINUOUS
 62
     7
 10
151.0437848282705
 20
131.37610793002631
 30
0.0
 42
0.0234033477270623
  0
VERTEX
  5
12A8
  8
DATA
  6
CONTINUOUS
 62
     7
 10
151.04914808876509
 20
131.41894560198801
 30
0.0
  0
VERTEX
  5
12A9
  8
DATA
  6
CONTINUOUS
 62
     7
 10
151.04970757258889
 20
131.42612671509269
 30
0.0
 42
0.0193570134863884
  0
VERTEX
  5
12AA
  8
DATA
  6
CONTINUOUS
 62
     7
 10
151.0518831408487
 20
131.48181905092571
 30
0.0
  0
VERTEX
  5
12AB
  8
DATA
  6
CONTINUOUS
 62
     7
 10
151.0518832914542
 20
131.4827179813079
 30
0.0
  0
SEQEND
  5
12AC
  8
DATA
  6
CONTINUOUS
 62
     7
  0
POLYLINE
  5
928
  8
DATA
  6
CONTINUOUS
 62
     7
 66
     1
 10
0.0
 20
0.0
 30
0.0
 70
   128
  0
VERTEX
  5
12AD
  8
DATA
  6
CONTINUOUS
 62
     7
 10
142.99381767374959
 20
131.0120117311175
 30
0.0
 42
-0.0049135421077763
  0
VERTEX
  5
12AE
  8
DATA
  6
CONTINUOUS
 62
     7
 10
143.038685613626
 20
131.01655863854461
 30
0.0
  0
VERTEX
  5
12AF
  8
DATA
  6
CONTINUOUS
 62
     7
 10
143.03900799765361
 20
131.01658811134959
 30
0.0
  0
VERTEX
  5
12B0
  8
DATA
  6
CONTINUOUS
 62
     7
 10
143.03900799765361
 20
131.01658811134959
 30
0.0
 42
-0.0031742955290928
  0
VERTEX
  5
12B1
  8
DATA
  6
CONTINUOUS
 62
     7
 10
143.0845899939537
 20
131.02046364834749
 30
0.0
  0
VERTEX
  5
12B2
  8
DATA
  6
CONTINUOUS
 62
     7
 10
143.0902639950132
 20
131.02090980819011
 30
0.0
  0
VERTEX
  5
12B3
  8
DATA
  6
CONTINUOUS
 62
     7
 10
143.0902639950132
 20
131.02090980819011
 30
0.0
 42
-0.0040092895587306
  0
VERTEX
  5
12B4
  8
DATA
  6
CONTINUOUS
 62
     7
 10
143.1472508452056
 20
131.02493131959079
 30
0.0
  0
VERTEX
  5
12B5
  8
DATA
  6
CONTINUOUS
 62
     7
 10
143.16523215356699
 20
131.0260554215898
 30
0.0
  0
VERTEX
  5
12B6
  8
DATA
  6
CONTINUOUS
 62
     7
 10
143.16523215356699
 20
131.0260554215898
 30
0.0
 42
-0.0057989796326151
  0
VERTEX
  5
12B7
  8
DATA
  6
CONTINUOUS
 62
     7
 10
143.25826877072029
 20
131.0307891048933
 30
0.0
  0
VERTEX
  5
12B8
  8
DATA
  6
CONTINUOUS
 62
     7
 10
143.27096728498179
 20
131.0312876266072
 30
0.0
  0
VERTEX
  5
12B9
  8
DATA
  6
CONTINUOUS
 62
     7
 10
143.28066082884121
 20
131.03166817837871
 30
0.0
 42
-0.0050490439638176
  0
VERTEX
  5
12BA
  8
DATA
  6
CONTINUOUS
 62
     7
 10
143.37979146884561
 20
131.03455767494489
 30
0.0
  0
VERTEX
  5
12BB
  8
DATA
  6
CONTINUOUS
 62
     7
 10
143.38848176039471
 20
131.03472317649701
 30
0.0
 42
-0.0030077857276452
  0
VERTEX
  5
12BC
  8
DATA
  6
CONTINUOUS
 62
     7
 10
143.47026740576089
 20
131.03578862267551
 30
0.0
  0
VERTEX
  5
12BD
  8
DATA
  6
CONTINUOUS
 62
     7
 10
143.47026740576089
 20
131.03578862267551
 30
0.0
 42
-0.0027853507171497
  0
VERTEX
  5
12BE
  8
DATA
  6
CONTINUOUS
 62
     7
 10
143.5520601167311
 20
131.03590643070211
 30
0.0
  0
VERTEX
  5
12BF
  8
DATA
  6
CONTINUOUS
 62
     7
 10
143.55389419691781
 20
131.03589885524079
 30
0.0
  0
VERTEX
  5
12C0
  8
DATA
  6
CONTINUOUS
 62
     7
 10
143.55389419691781
 20
131.03589885524079
 30
0.0
 42
-0.002657489312841
  0
VERTEX
  5
12C1
  8
DATA
  6
CONTINUOUS
 62
     7
 10
143.639351434281
 20
131.0350916594395
 30
0.0
  0
VERTEX
  5
12C2
  8
DATA
  6
CONTINUOUS
 62
     7
 10
143.6451109179425
 20
131.0350066415817
 30
0.0
  0
VERTEX
  5
12C3
  8
DATA
  6
CONTINUOUS
 62
     7
 10
143.6451109179425
 20
131.0350066415817
 30
0.0
 42
-0.0028598840026862
  0
VERTEX
  5
12C4
  8
DATA
  6
CONTINUOUS
 62
     7
 10
143.7420714726203
 20
131.03302060705269
 30
0.0
  0
VERTEX
  5
12C5
  8
DATA
  6
CONTINUOUS
 62
     7
 10
143.74299253166421
 20
131.03299646996621
 30
0.0
  0
VERTEX
  5
12C6
  8
DATA
  6
CONTINUOUS
 62
     7
 10
143.7462439239624
 20
131.0329112646389
 30
0.0
 42
-0.0020284340347644
  0
VERTEX
  5
12C7
  8
DATA
  6
CONTINUOUS
 62
     7
 10
143.8385211221017
 20
131.03011841221789
 30
0.0
  0
VERTEX
  5
12C8
  8
DATA
  6
CONTINUOUS
 62
     7
 10
143.8385211221017
 20
131.03011841221789
 30
0.0
 42
-0.0017784179772149
  0
VERTEX
  5
12C9
  8
DATA
  6
CONTINUOUS
 62
     7
 10
143.93077455756421
 20
131.02662307046401
 30
0.0
  0
VERTEX
  5
12CA
  8
DATA
  6
CONTINUOUS
 62
     7
 10
143.9316689450348
 20
131.02658599729321
 30
0.0
  0
VERTEX
  5
12CB
  8
DATA
  6
CONTINUOUS
 62
     7
 10
143.9316689450348
 20
131.02658599729321
 30
0.0
 42
-0.0015369894588473
  0
VERTEX
  5
12CC
  8
DATA
  6
CONTINUOUS
 62
     7
 10
144.02568585341109
 20
131.0223993711468
 30
0.0
  0
VERTEX
  5
12CD
  8
DATA
  6
CONTINUOUS
 62
     7
 10
144.02683363847231
 20
131.02234472387241
 30
0.0
  0
VERTEX
  5
12CE
  8
DATA
  6
CONTINUOUS
 62
     7
 10
144.02683363847231
 20
131.02234472387241
 30
0.0
 42
-0.0013369252032229
  0
VERTEX
  5
12CF
  8
DATA
  6
CONTINUOUS
 62
     7
 10
144.1231202995063
 20
131.0175023399124
 30
0.0
  0
VERTEX
  5
12D0
  8
DATA
  6
CONTINUOUS
 62
     7
 10
144.1323886491609
 20
131.017011374063
 30
0.0
  0
VERTEX
  5
12D1
  8
DATA
  6
CONTINUOUS
 62
     7
 10
144.1323886491609
 20
131.017011374063
 30
0.0
 42
-0.0013960971879938
  0
VERTEX
  5
12D2
  8
DATA
  6
CONTINUOUS
 62
     7
 10
144.2471811851812
 20
131.01060907811799
 30
0.0
  0
VERTEX
  5
12D3
  8
DATA
  6
CONTINUOUS
 62
     7
 10
144.26028047895511
 20
131.0098417990875
 30
0.0
  0
VERTEX
  5
12D4
  8
DATA
  6
CONTINUOUS
 62
     7
 10
144.27158672098491
 20
131.00917954640619
 30
0.0
 42
-0.0013514124790003
  0
VERTEX
  5
12D5
  8
DATA
  6
CONTINUOUS
 62
     7
 10
144.3899278811127
 20
131.00192681803901
 30
0.0
  0
VERTEX
  5
12D6
  8
DATA
  6
CONTINUOUS
 62
     7
 10
144.3899278811127
 20
131.00192681803901
 30
0.0
 42
-0.0006436720309655
  0
VERTEX
  5
12D7
  8
DATA
  6
CONTINUOUS
 62
     7
 10
144.50823949375109
 20
130.99420192583139
 30
0.0
  0
VERTEX
  5
12D8
  8
DATA
  6
CONTINUOUS
 62
     7
 10
144.50953488376419
 20
130.99411567137361
 30
0.0
  0
VERTEX
  5
12D9
  8
DATA
  6
CONTINUOUS
 62
     7
 10
144.50953488376419
 20
130.99411567137361
 30
0.0
 42
-0.0008013663835926
  0
VERTEX
  5
12DA
  8
DATA
  6
CONTINUOUS
 62
     7
 10
144.63041411978031
 20
130.98587222519839
 30
0.0
  0
VERTEX
  5
12DB
  8
DATA
  6
CONTINUOUS
 62
     7
 10
144.64568339402669
 20
130.9848063370095
 30
0.0
  0
VERTEX
  5
12DC
  8
DATA
  6
CONTINUOUS
 62
     7
 10
144.64568339402669
 20
130.9848063370095
 30
0.0
 42
-0.0004989380499771
  0
VERTEX
  5
12DD
  8
DATA
  6
CONTINUOUS
 62
     7
 10
144.7970772692193
 20
130.97408630485219
 30
0.0
  0
VERTEX
  5
12DE
  8
DATA
  6
CONTINUOUS
 62
     7
 10
144.82361332047651
 20
130.97218070218989
 30
0.0
  0
VERTEX
  5
12DF
  8
DATA
  6
CONTINUOUS
 62
     7
 10
144.82361332047651
 20
130.97218070218989
 30
0.0
 42
-0.000659423905918
  0
VERTEX
  5
12E0
  8
DATA
  6
CONTINUOUS
 62
     7
 10
145.02804888158889
 20
130.95722877283109
 30
0.0
  0
VERTEX
  5
12E1
  8
DATA
  6
CONTINUOUS
 62
     7
 10
145.02864998281859
 20
130.9571840126419
 30
0.0
  0
VERTEX
  5
12E2
  8
DATA
  6
CONTINUOUS
 62
     7
 10
145.0568651985902
 20
130.95508300480441
 30
0.0
 42
-0.0001846194191301
  0
VERTEX
  5
12E3
  8
DATA
  6
CONTINUOUS
 62
     7
 10
145.20604868905849
 20
130.94391886689189
 30
0.0
  0
VERTEX
  5
12E4
  8
DATA
  6
CONTINUOUS
 62
     7
 10
145.20604868905849
 20
130.94391886689189
 30
0.0
 42
-0.0000849035068141
  0
VERTEX
  5
12E5
  8
DATA
  6
CONTINUOUS
 62
     7
 10
145.35522614788749
 20
130.93267431326001
 30
0.0
  0
VERTEX
  5
12E6
  8
DATA
  6
CONTINUOUS
 62
     7
 10
145.40109149553069
 20
130.9292092870146
 30
0.0
  0
VERTEX
  5
12E7
  8
DATA
  6
CONTINUOUS
 62
     7
 10
145.40477122158379
 20
130.92893130099131
 30
0.0
  0
VERTEX
  5
12E8
  8
DATA
  6
CONTINUOUS
 62
     7
 10
145.40847090350221
 20
130.92865181353909
 30
0.0
  0
VERTEX
  5
12E9
  8
DATA
  6
CONTINUOUS
 62
     7
 10
145.41219054128601
 20
130.92837082465789
 30
0.0
  0
VERTEX
  5
12EA
  8
DATA
  6
CONTINUOUS
 62
     7
 10
145.415930134935
 20
130.92808833434779
 30
0.0
  0
VERTEX
  5
12EB
  8
DATA
  6
CONTINUOUS
 62
     7
 10
145.41968968444931
 20
130.92780434260871
 30
0.0
  0
VERTEX
  5
12EC
  8
DATA
  6
CONTINUOUS
 62
     7
 10
145.42346918982881
 20
130.9275188494407
 30
0.0
  0
VERTEX
  5
12ED
  8
DATA
  6
CONTINUOUS
 62
     7
 10
145.42726865107369
 20
130.92723185484371
 30
0.0
  0
VERTEX
  5
12EE
  8
DATA
  6
CONTINUOUS
 62
     7
 10
145.43108806818401
 20
130.92694335881779
 30
0.0
  0
VERTEX
  5
12EF
  8
DATA
  6
CONTINUOUS
 62
     7
 10
145.4349274411594
 20
130.92665336136301
 30
0.0
  0
VERTEX
  5
12F0
  8
DATA
  6
CONTINUOUS
 62
     7
 10
145.43878677000009
 20
130.9263618624793
 30
0.0
  0
VERTEX
  5
12F1
  8
DATA
  6
CONTINUOUS
 62
     7
 10
145.44266605470619
 20
130.92606886216649
 30
0.0
  0
VERTEX
  5
12F2
  8
DATA
  6
CONTINUOUS
 62
     7
 10
145.44656529527759
 20
130.92577436042481
 30
0.0
  0
VERTEX
  5
12F3
  8
DATA
  6
CONTINUOUS
 62
     7
 10
145.45048449171421
 20
130.92547835725421
 30
0.0
  0
VERTEX
  5
12F4
  8
DATA
  6
CONTINUOUS
 62
     7
 10
145.45442364401609
 20
130.92518085265471
 30
0.0
  0
VERTEX
  5
12F5
  8
DATA
  6
CONTINUOUS
 62
     7
 10
145.45838275218341
 20
130.92488184662619
 30
0.0
  0
VERTEX
  5
12F6
  8
DATA
  6
CONTINUOUS
 62
     7
 10
145.46236181621589
 20
130.92458133916881
 30
0.0
  0
VERTEX
  5
12F7
  8
DATA
  6
CONTINUOUS
 62
     7
 10
145.46636083611369
 20
130.92427933028239
 30
0.0
  0
VERTEX
  5
12F8
  8
DATA
  6
CONTINUOUS
 62
     7
 10
145.47037981187691
 20
130.9239758199671
 30
0.0
  0
VERTEX
  5
12F9
  8
DATA
  6
CONTINUOUS
 62
     7
 10
145.47441874350531
 20
130.92367080822291
 30
0.0
  0
VERTEX
  5
12FA
  8
DATA
  6
CONTINUOUS
 62
     7
 10
145.47847763099901
 20
130.92336429504971
 30
0.0
  0
VERTEX
  5
12FB
  8
DATA
  6
CONTINUOUS
 62
     7
 10
145.48255647435789
 20
130.9230562804475
 30
0.0
  0
VERTEX
  5
12FC
  8
DATA
  6
CONTINUOUS
 62
     7
 10
145.4866552735823
 20
130.9227467644165
 30
0.0
  0
VERTEX
  5
12FD
  8
DATA
  6
CONTINUOUS
 62
     7
 10
145.49077402867181
 20
130.92243574695649
 30
0.0
  0
VERTEX
  5
12FE
  8
DATA
  6
CONTINUOUS
 62
     7
 10
145.4949127396267
 20
130.92212322806751
 30
0.0
  0
VERTEX
  5
12FF
  8
DATA
  6
CONTINUOUS
 62
     7
 10
145.49907140644689
 20
130.92180920774959
 30
0.0
  0
VERTEX
  5
1300
  8
DATA
  6
CONTINUOUS
 62
     7
 10
145.5032500291324
 20
130.9214936860028
 30
0.0
  0
VERTEX
  5
1301
  8
DATA
  6
CONTINUOUS
 62
     7
 10
145.50744860768299
 20
130.92117666282689
 30
0.0
  0
VERTEX
  5
1302
  8
DATA
  6
CONTINUOUS
 62
     7
 10
145.5116671420991
 20
130.9208581382222
 30
0.0
  0
VERTEX
  5
1303
  8
DATA
  6
CONTINUOUS
 62
     7
 10
145.5159056323804
 20
130.92053811218861
 30
0.0
  0
VERTEX
  5
1304
  8
DATA
  6
CONTINUOUS
 62
     7
 10
145.52016407852699
 20
130.92021658472589
 30
0.0
  0
VERTEX
  5
1305
  8
DATA
  6
CONTINUOUS
 62
     7
 10
145.52444248053899
 20
130.91989355583439
 30
0.0
  0
VERTEX
  5
1306
  8
DATA
  6
CONTINUOUS
 62
     7
 10
145.52874083841621
 20
130.91956902551391
 30
0.0
  0
VERTEX
  5
1307
  8
DATA
  6
CONTINUOUS
 62
     7
 10
145.5330591521587
 20
130.91924299376441
 30
0.0
  0
VERTEX
  5
1308
  8
DATA
  6
CONTINUOUS
 62
     7
 10
145.53739742176651
 20
130.91891546058599
 30
0.0
  0
VERTEX
  5
1309
  8
DATA
  6
CONTINUOUS
 62
     7
 10
145.5417556472396
 20
130.9185864259787
 30
0.0
  0
VERTEX
  5
130A
  8
DATA
  6
CONTINUOUS
 62
     7
 10
145.54613382857801
 20
130.9182558899424
 30
0.0
  0
VERTEX
  5
130B
  8
DATA
  6
CONTINUOUS
 62
     7
 10
145.55053196578169
 20
130.9179238524772
 30
0.0
  0
VERTEX
  5
130C
  8
DATA
  6
CONTINUOUS
 62
     7
 10
145.55495005885069
 20
130.91759031358299
 30
0.0
  0
VERTEX
  5
130D
  8
DATA
  6
CONTINUOUS
 62
     7
 10
145.55938810778491
 20
130.91725527326
 30
0.0
  0
VERTEX
  5
130E
  8
DATA
  6
CONTINUOUS
 62
     7
 10
145.56384611258451
 20
130.91691873150799
 30
0.0
  0
VERTEX
  5
130F
  8
DATA
  6
CONTINUOUS
 62
     7
 10
145.5683240732493
 20
130.916580688327
 30
0.0
  0
VERTEX
  5
1310
  8
DATA
  6
CONTINUOUS
 62
     7
 10
145.5728219897795
 20
130.91624114371709
 30
0.0
  0
VERTEX
  5
1311
  8
DATA
  6
CONTINUOUS
 62
     7
 10
145.57733986217499
 20
130.91590009767819
 30
0.0
  0
VERTEX
  5
1312
  8
DATA
  6
CONTINUOUS
 62
     7
 10
145.5818776904357
 20
130.91555755021039
 30
0.0
  0
VERTEX
  5
1313
  8
DATA
  6
CONTINUOUS
 62
     7
 10
145.58643547456171
 20
130.9152135013137
 30
0.0
  0
VERTEX
  5
1314
  8
DATA
  6
CONTINUOUS
 62
     7
 10
145.5910132145531
 20
130.914867950988
 30
0.0
  0
VERTEX
  5
1315
  8
DATA
  6
CONTINUOUS
 62
     7
 10
145.59561091040959
 20
130.91452089923339
 30
0.0
  0
VERTEX
  5
1316
  8
DATA
  6
CONTINUOUS
 62
     7
 10
145.6002285621316
 20
130.91417234604981
 30
0.0
  0
VERTEX
  5
1317
  8
DATA
  6
CONTINUOUS
 62
     7
 10
145.6048661697188
 20
130.9138222914373
 30
0.0
  0
VERTEX
  5
1318
  8
DATA
  6
CONTINUOUS
 62
     7
 10
145.6095237331713
 20
130.9134707353958
 30
0.0
  0
VERTEX
  5
1319
  8
DATA
  6
CONTINUOUS
 62
     7
 10
145.6142012524891
 20
130.9131176779255
 30
0.0
  0
VERTEX
  5
131A
  8
DATA
  6
CONTINUOUS
 62
     7
 10
145.61889872767219
 20
130.9127631190261
 30
0.0
  0
VERTEX
  5
131B
  8
DATA
  6
CONTINUOUS
 62
     7
 10
145.62361615872061
 20
130.9124070586978
 30
0.0
  0
VERTEX
  5
131C
  8
DATA
  6
CONTINUOUS
 62
     7
 10
145.62835354563421
 20
130.9120494969406
 30
0.0
  0
VERTEX
  5
131D
  8
DATA
  6
CONTINUOUS
 62
     7
 10
145.63311088841311
 20
130.9116904337545
 30
0.0
  0
VERTEX
  5
131E
  8
DATA
  6
CONTINUOUS
 62
     7
 10
145.63788818705751
 20
130.91132986913931
 30
0.0
  0
VERTEX
  5
131F
  8
DATA
  6
CONTINUOUS
 62
     7
 10
145.6426854415669
 20
130.9109678030953
 30
0.0
  0
VERTEX
  5
1320
  8
DATA
  6
CONTINUOUS
 62
     7
 10
145.64750265194181
 20
130.91060423562229
 30
0.0
  0
VERTEX
  5
1321
  8
DATA
  6
CONTINUOUS
 62
     7
 10
145.65233981818201
 20
130.9102391667204
 30
0.0
  0
VERTEX
  5
1322
  8
DATA
  6
CONTINUOUS
 62
     7
 10
145.65719694028741
 20
130.9098725963895
 30
0.0
  0
VERTEX
  5
1323
  8
DATA
  6
CONTINUOUS
 62
     7
 10
145.6620740182581
 20
130.90950452462971
 30
0.0
  0
VERTEX
  5
1324
  8
DATA
  6
CONTINUOUS
 62
     7
 10
145.66697105209411
 20
130.9091349514409
 30
0.0
  0
VERTEX
  5
1325
  8
DATA
  6
CONTINUOUS
 62
     7
 10
145.6718880417954
 20
130.90876387682329
 30
0.0
  0
VERTEX
  5
1326
  8
DATA
  6
CONTINUOUS
 62
     7
 10
145.6718880417954
 20
130.90876387682329
 30
0.0
  0
VERTEX
  5
1327
  8
DATA
  6
CONTINUOUS
 62
     7
 10
145.69515247564871
 20
130.90700817098389
 30
0.0
 42
0.0002484693030583
  0
VERTEX
  5
1328
  8
DATA
  6
CONTINUOUS
 62
     7
 10
145.96395955073791
 20
130.88685634202531
 30
0.0
  0
VERTEX
  5
1329
  8
DATA
  6
CONTINUOUS
 62
     7
 10
145.98570680661581
 20
130.88523686920851
 30
0.0
 42
0.0002835034845166
  0
VERTEX
  5
132A
  8
DATA
  6
CONTINUOUS
 62
     7
 10
146.21103882570961
 20
130.8685853313404
 30
0.0
  0
VERTEX
  5
132B
  8
DATA
  6
CONTINUOUS
 62
     7
 10
146.21286978120671
 20
130.8684510985382
 30
0.0
  0
SEQEND
  5
132C
  8
DATA
  6
CONTINUOUS
 62
     7
  0
POLYLINE
  5
9A9
  8
DATA
  6
CONTINUOUS
 62
     7
 66
     1
 10
0.0
 20
0.0
 30
0.0
 70
   128
  0
VERTEX
  5
132D
  8
DATA
  6
CONTINUOUS
 62
     7
 10
147.78735322034811
 20
133.37200290663631
 30
0.0
  0
VERTEX
  5
132E
  8
DATA
  6
CONTINUOUS
 62
     7
 10
147.78708839843819
 20
133.3720802004697
 30
0.0
 42
0.0008481358037615
  0
VERTEX
  5
132F
  8
DATA
  6
CONTINUOUS
 62
     7
 10
147.6874738593296
 20
133.40097151745579
 30
0.0
  0
VERTEX
  5
1330
  8
DATA
  6
CONTINUOUS
 62
     7
 10
147.68720879680239
 20
133.4010479061501
 30
0.0
  0
SEQEND
  5
1331
  8
DATA
  6
CONTINUOUS
 62
     7
  0
POLYLINE
  5
9AF
  8
DATA
  6
CONTINUOUS
 62
     7
 66
     1
 10
0.0
 20
0.0
 30
0.0
  0
VERTEX
  5
1332
  8
DATA
  6
CONTINUOUS
 62
     7
 10
147.68720879680239
 20
133.4010479061501
 30
0.0
  0
VERTEX
  5
1333
  8
DATA
  6
CONTINUOUS
 62
     7
 10
147.6772620538375
 20
133.40391265103571
 30
0.0
  0
SEQEND
  5
1334
  8
DATA
  6
CONTINUOUS
 62
     7
  0
POLYLINE
  5
9B4
  8
DATA
  6
CONTINUOUS
 62
     7
 66
     1
 10
0.0
 20
0.0
 30
0.0
 70
   128
  0
VERTEX
  5
1335
  8
DATA
  6
CONTINUOUS
 62
     7
 10
147.6772620538375
 20
133.40391265103571
 30
0.0
 42
0.0011566958399378
  0
VERTEX
  5
1336
  8
DATA
  6
CONTINUOUS
 62
     7
 10
147.5339835294825
 20
133.4447843472141
 30
0.0
  0
VERTEX
  5
1337
  8
DATA
  6
CONTINUOUS
 62
     7
 10
147.52234081932781
 20
133.4480764452332
 30
0.0
 42
0.0014837591321333
  0
VERTEX
  5
1338
  8
DATA
  6
CONTINUOUS
 62
     7
 10
147.35554394822071
 20
133.49470590380901
 30
0.0
  0
VERTEX
  5
1339
  8
DATA
  6
CONTINUOUS
 62
     7
 10
147.34244183159129
 20
133.49832682519579
 30
0.0
 42
0.00130267073125
  0
VERTEX
  5
133A
  8
DATA
  6
CONTINUOUS
 62
     7
 10
147.16225271327221
 20
133.54761922460699
 30
0.0
 42
0.0012263875111774
  0
VERTEX
  5
133B
  8
DATA
  6
CONTINUOUS
 62
     7
 10
146.98181650485051
 20
133.59599959894999
 30
0.0
  0
VERTEX
  5
133C
  8
DATA
  6
CONTINUOUS
 62
     7
 10
146.93141110368671
 20
133.60938236835599
 30
0.0
 42
0.0024041974913924
  0
VERTEX
  5
133D
  8
DATA
  6
CONTINUOUS
 62
     7
 10
146.6496927349196
 20
133.6827310903993
 30
0.0
  0
VERTEX
  5
133E
  8
DATA
  6
CONTINUOUS
 62
     7
 10
146.59877470602939
 20
133.6957270982499
 30
0.0
 42
0.0022395111410986
  0
VERTEX
  5
133F
  8
DATA
  6
CONTINUOUS
 62
     7
 10
146.2143697812881
 20
133.79200843600111
 30
0.0
  0
VERTEX
  5
1340
  8
DATA
  6
CONTINUOUS
 62
     7
 10
146.21286978120671
 20
133.79237701308651
 30
0.0
  0
SEQEND
  5
1341
  8
DATA
  6
CONTINUOUS
 62
     7
  0
POLYLINE
  5
9C2
  8
DATA
  6
CONTINUOUS
 62
     7
 66
     1
 10
0.0
 20
0.0
 30
0.0
 70
   128
  0
VERTEX
  5
1342
  8
DATA
  6
CONTINUOUS
 62
     7
 10
150.96799127184951
 20
139.62365455786119
 30
0.0
  0
VERTEX
  5
1343
  8
DATA
  6
CONTINUOUS
 62
     7
 10
150.96801389945779
 20
139.6236978313658
 30
0.0
 42
0.0039663068998928
  0
VERTEX
  5
1344
  8
DATA
  6
CONTINUOUS
 62
     7
 10
150.97371968567839
 20
139.63482374537389
 30
0.0
  0
VERTEX
  5
1345
  8
DATA
  6
CONTINUOUS
 62
     7
 10
150.9744051843748
 20
139.63618694782861
 30
0.0
 42
0.0041023724204496
  0
VERTEX
  5
1346
  8
DATA
  6
CONTINUOUS
 62
     7
 10
150.97858214467939
 20
139.64466599090821
 30
0.0
  0
VERTEX
  5
1347
  8
DATA
  6
CONTINUOUS
 62
     7
 10
150.97892448540131
 20
139.6453755543333
 30
0.0
 42
0.0020770179147236
  0
VERTEX
  5
1348
  8
DATA
  6
CONTINUOUS
 62
     7
 10
150.982317666516
 20
139.65248383748931
 30
0.0
 42
0.0031512028131187
  0
VERTEX
  5
1349
  8
DATA
  6
CONTINUOUS
 62
     7
 10
150.98563629905581
 20
139.65962713167801
 30
0.0
  0
VERTEX
  5
134A
  8
DATA
  6
CONTINUOUS
 62
     7
 10
150.9859636149391
 20
139.66034345344599
 30
0.0
 42
0.0024591204204227
  0
VERTEX
  5
134B
  8
DATA
  6
CONTINUOUS
 62
     7
 10
150.98895861479349
 20
139.66698413507919
 30
0.0
  0
VERTEX
  5
134C
  8
DATA
  6
CONTINUOUS
 62
     7
 10
150.98899863740709
 20
139.66707406986171
 30
0.0
  0
SEQEND
  5
134D
  8
DATA
  6
CONTINUOUS
 62
     7
  0
POLYLINE
  5
9CF
  8
DATA
  6
CONTINUOUS
 62
     7
 66
     1
 10
0.0
 20
0.0
 30
0.0
 70
   128
  0
VERTEX
  5
134E
  8
DATA
  6
CONTINUOUS
 62
     7
 10
150.98899863740709
 20
139.66707406986171
 30
0.0
  0
VERTEX
  5
134F
  8
DATA
  6
CONTINUOUS
 62
     7
 10
150.98943803765701
 20
139.66806185715859
 30
0.0
 42
0.004228339850097
  0
VERTEX
  5
1350
  8
DATA
  6
CONTINUOUS
 62
     7
 10
150.99359195293161
 20
139.67761678569909
 30
0.0
 42
0.0028553769382339
  0
VERTEX
  5
1351
  8
DATA
  6
CONTINUOUS
 62
     7
 10
150.9976101658398
 20
139.68722979041061
 30
0.0
  0
VERTEX
  5
1352
  8
DATA
  6
CONTINUOUS
 62
     7
 10
150.9978220709333
 20
139.68774499228479
 30
0.0
 42
0.0050169923968605
  0
VERTEX
  5
1353
  8
DATA
  6
CONTINUOUS
 62
     7
 10
151.0021017364306
 20
139.69845429113639
 30
0.0
  0
VERTEX
  5
1354
  8
DATA
  6
CONTINUOUS
 62
     7
 10
151.00267061066609
 20
139.6999203437918
 30
0.0
  0
VERTEX
  5
1355
  8
DATA
  6
CONTINUOUS
 62
     7
 10
151.0026943104823
 20
139.6999814296515
 30
0.0
  0
SEQEND
  5
1356
  8
DATA
  6
CONTINUOUS
 62
     7
  0
POLYLINE
  5
9D9
  8
DATA
  6
CONTINUOUS
 62
     7
 66
     1
 10
0.0
 20
0.0
 30
0.0
 70
   128
  0
VERTEX
  5
1357
  8
DATA
  6
CONTINUOUS
 62
     7
 10
151.0026943104823
 20
139.6999814296515
 30
0.0
  0
VERTEX
  5
1358
  8
DATA
  6
CONTINUOUS
 62
     7
 10
151.00269633627539
 20
139.69998665194689
 30
0.0
 42
0.0019437213211366
  0
VERTEX
  5
1359
  8
DATA
  6
CONTINUOUS
 62
     7
 10
151.0047254902189
 20
139.70527853201929
 30
0.0
  0
VERTEX
  5
135A
  8
DATA
  6
CONTINUOUS
 62
     7
 10
151.0047274749505
 20
139.70528376892759
 30
0.0
  0
SEQEND
  5
135B
  8
DATA
  6
CONTINUOUS
 62
     7
  0
POLYLINE
  5
9DF
  8
DATA
  6
CONTINUOUS
 62
     7
 66
     1
 10
0.0
 20
0.0
 30
0.0
 70
   128
  0
VERTEX
  5
135C
  8
DATA
  6
CONTINUOUS
 62
     7
 10
151.0047274749505
 20
139.70528376892759
 30
0.0
  0
VERTEX
  5
135D
  8
DATA
  6
CONTINUOUS
 62
     7
 10
151.00614289030139
 20
139.70902175099229
 30
0.0
 42
0.0105420346665143
  0
VERTEX
  5
135E
  8
DATA
  6
CONTINUOUS
 62
     7
 10
151.0138350815011
 20
139.73070585144231
 30
0.0
  0
VERTEX
  5
135F
  8
DATA
  6
CONTINUOUS
 62
     7
 10
151.0150151700152
 20
139.73426918835881
 30
0.0
 42
0.0054081891838865
  0
VERTEX
  5
1360
  8
DATA
  6
CONTINUOUS
 62
     7
 10
151.0197301749192
 20
139.74903981646341
 30
0.0
 42
0.0054489351173061
  0
VERTEX
  5
1361
  8
DATA
  6
CONTINUOUS
 62
     7
 10
151.02412335968251
 20
139.7639093231154
 30
0.0
  0
VERTEX
  5
1362
  8
DATA
  6
CONTINUOUS
 62
     7
 10
151.02446526731251
 20
139.7651147606079
 30
0.0
 42
0.007226073298412
  0
VERTEX
  5
1363
  8
DATA
  6
CONTINUOUS
 62
     7
 10
151.02912879879969
 20
139.78251042158371
 30
0.0
  0
VERTEX
  5
1364
  8
DATA
  6
CONTINUOUS
 62
     7
 10
151.02965420486561
 20
139.78458996884251
 30
0.0
 42
0.0083740588004567
  0
VERTEX
  5
1365
  8
DATA
  6
CONTINUOUS
 62
     7
 10
151.03475354432609
 20
139.80629753622239
 30
0.0
  0
VERTEX
  5
1366
  8
DATA
  6
CONTINUOUS
 62
     7
 10
151.03494320283349
 20
139.8071703063101
 30
0.0
 42
0.0082667015710148
  0
VERTEX
  5
1367
  8
DATA
  6
CONTINUOUS
 62
     7
 10
151.03966805825601
 20
139.8307883195221
 30
0.0
  0
VERTEX
  5
1368
  8
DATA
  6
CONTINUOUS
 62
     7
 10
151.0396933712739
 20
139.83092670595181
 30
0.0
 42
0.0081687673583378
  0
VERTEX
  5
1369
  8
DATA
  6
CONTINUOUS
 62
     7
 10
151.04359368218769
 20
139.8544111673512
 30
0.0
  0
VERTEX
  5
136A
  8
DATA
  6
CONTINUOUS
 62
     7
 10
151.0436573665165
 20
139.85483761547169
 30
0.0
 42
0.0078933961680482
  0
VERTEX
  5
136B
  8
DATA
  6
CONTINUOUS
 62
     7
 10
151.04668754151359
 20
139.8775807460714
 30
0.0
  0
VERTEX
  5
136C
  8
DATA
  6
CONTINUOUS
 62
     7
 10
151.0467213693334
 20
139.8778693782852
 30
0.0
 42
0.0074238385463541
  0
VERTEX
  5
136D
  8
DATA
  6
CONTINUOUS
 62
     7
 10
151.0489944839571
 20
139.9001168365136
 30
0.0
 42
0.0073488311848363
  0
VERTEX
  5
136E
  8
DATA
  6
CONTINUOUS
 62
     7
 10
151.0506092609555
 20
139.92241973914079
 30
0.0
  0
VERTEX
  5
136F
  8
DATA
  6
CONTINUOUS
 62
     7
 10
151.0506195000797
 20
139.9225973795933
 30
0.0
 42
0.00728344004547
  0
VERTEX
  5
1370
  8
DATA
  6
CONTINUOUS
 62
     7
 10
151.0515655603796
 20
139.9445804752599
 30
0.0
  0
VERTEX
  5
1371
  8
DATA
  6
CONTINUOUS
 62
     7
 10
151.0515705863782
 20
139.9447571340356
 30
0.0
 42
0.007001193073255
  0
VERTEX
  5
1372
  8
DATA
  6
CONTINUOUS
 62
     7
 10
151.05188321493131
 20
139.9664050717891
 30
0.0
  0
VERTEX
  5
1373
  8
DATA
  6
CONTINUOUS
 62
     7
 10
151.0518832914542
 20
139.96675421729691
 30
0.0
  0
SEQEND
  5
1374
  8
DATA
  6
CONTINUOUS
 62
     7
  0
POLYLINE
  5
9F9
  8
DATA
  6
CONTINUOUS
 62
     7
 66
     1
 10
0.0
 20
0.0
 30
0.0
 70
   128
  0
VERTEX
  5
1375
  8
DATA
  6
CONTINUOUS
 62
     7
 10
150.96703321026129
 20
139.62159359638289
 30
0.0
  0
VERTEX
  5
1376
  8
DATA
  6
CONTINUOUS
 62
     7
 10
150.96435356972569
 20
139.6181642761868
 30
0.0
  0
VERTEX
  5
1377
  8
DATA
  6
CONTINUOUS
 62
     7
 10
150.96435356972569
 20
139.6181642761868
 30
0.0
 42
-0.0105801655899946
  0
VERTEX
  5
1378
  8
DATA
  6
CONTINUOUS
 62
     7
 10
150.9287814979136
 20
139.57457363287611
 30
0.0
  0
VERTEX
  5
1379
  8
DATA
  6
CONTINUOUS
 62
     7
 10
150.9287814979136
 20
139.57457363287611
 30
0.0
 42
-0.0097115081845001
  0
VERTEX
  5
137A
  8
DATA
  6
CONTINUOUS
 62
     7
 10
150.89146390680261
 20
139.53245537920321
 30
0.0
  0
VERTEX
  5
137B
  8
DATA
  6
CONTINUOUS
 62
     7
 10
150.89146390680261
 20
139.53245537920321
 30
0.0
 42
-0.0088488574279459
  0
VERTEX
  5
137C
  8
DATA
  6
CONTINUOUS
 62
     7
 10
150.85260274653709
 20
139.49174452166949
 30
0.0
  0
VERTEX
  5
137D
  8
DATA
  6
CONTINUOUS
 62
     7
 10
150.85176262891591
 20
139.49089503656509
 30
0.0
  0
VERTEX
  5
137E
  8
DATA
  6
CONTINUOUS
 62
     7
 10
150.85176262891591
 20
139.49089503656509
 30
0.0
 42
-0.0087584278305359
  0
VERTEX
  5
137F
  8
DATA
  6
CONTINUOUS
 62
     7
 10
150.8097826762824
 20
139.4499084295974
 30
0.0
  0
VERTEX
  5
1380
  8
DATA
  6
CONTINUOUS
 62
     7
 10
150.8087564069248
 20
139.4489409697297
 30
0.0
  0
VERTEX
  5
1381
  8
DATA
  6
CONTINUOUS
 62
     7
 10
150.8087564069248
 20
139.4489409697297
 30
0.0
 42
-0.0081361722984435
  0
VERTEX
  5
1382
  8
DATA
  6
CONTINUOUS
 62
     7
 10
150.76333142123559
 20
139.40749407616579
 30
0.0
  0
VERTEX
  5
1383
  8
DATA
  6
CONTINUOUS
 62
     7
 10
150.76316878613241
 20
139.4073504628679
 30
0.0
  0
VERTEX
  5
1384
  8
DATA
  6
CONTINUOUS
 62
     7
 10
150.76316878613241
 20
139.4073504628679
 30
0.0
 42
-0.0073881822016354
  0
VERTEX
  5
1385
  8
DATA
  6
CONTINUOUS
 62
     7
 10
150.71614852637089
 20
139.36705038908281
 30
0.0
  0
VERTEX
  5
1386
  8
DATA
  6
CONTINUOUS
 62
     7
 10
150.71595982076479
 20
139.3668934299387
 30
0.0
  0
VERTEX
  5
1387
  8
DATA
  6
CONTINUOUS
 62
     7
 10
150.71595982076479
 20
139.3668934299387
 30
0.0
 42
-0.0067325815667657
  0
VERTEX
  5
1388
  8
DATA
  6
CONTINUOUS
 62
     7
 10
150.66743788460531
 20
139.32762764968751
 30
0.0
  0
VERTEX
  5
1389
  8
DATA
  6
CONTINUOUS
 62
     7
 10
150.666553092595
 20
139.32693114684031
 30
0.0
  0
VERTEX
  5
138A
  8
DATA
  6
CONTINUOUS
 62
     7
 10
150.666553092595
 20
139.32693114684031
 30
0.0
 42
-0.0065026375027236
  0
VERTEX
  5
138B
  8
DATA
  6
CONTINUOUS
 62
     7
 10
150.6152212079395
 20
139.2875933598032
 30
0.0
  0
VERTEX
  5
138C
  8
DATA
  6
CONTINUOUS
 62
     7
 10
150.61451603958989
 20
139.2870673733284
 30
0.0
  0
VERTEX
  5
138D
  8
DATA
  6
CONTINUOUS
 62
     7
 10
150.61451603958989
 20
139.2870673733284
 30
0.0
 42
-0.0059576133330896
  0
VERTEX
  5
138E
  8
DATA
  6
CONTINUOUS
 62
     7
 10
150.56079627437441
 20
139.24798516700841
 30
0.0
  0
VERTEX
  5
138F
  8
DATA
  6
CONTINUOUS
 62
     7
 10
150.56079627437441
 20
139.24798516700841
 30
0.0
 42
-0.005404121297053
  0
VERTEX
  5
1390
  8
DATA
  6
CONTINUOUS
 62
     7
 10
150.5062014582324
 20
139.2101329920994
 30
0.0
  0
VERTEX
  5
1391
  8
DATA
  6
CONTINUOUS
 62
     7
 10
150.5057609802505
 20
139.20983459299671
 30
0.0
  0
VERTEX
  5
1392
  8
DATA
  6
CONTINUOUS
 62
     7
 10
150.5057609802505
 20
139.20983459299671
 30
0.0
 42
-0.0050438573549658
  0
VERTEX
  5
1393
  8
DATA
  6
CONTINUOUS
 62
     7
 10
150.4494998869236
 20
139.1725432714305
 30
0.0
  0
VERTEX
  5
1394
  8
DATA
  6
CONTINUOUS
 62
     7
 10
150.44874913514261
 20
139.1720564820628
 30
0.0
  0
VERTEX
  5
1395
  8
DATA
  6
CONTINUOUS
 62
     7
 10
150.44874913514261
 20
139.1720564820628
 30
0.0
 42
-0.0047603439389845
  0
VERTEX
  5
1396
  8
DATA
  6
CONTINUOUS
 62
     7
 10
150.39025673392479
 20
139.13491604257419
 30
0.0
  0
VERTEX
  5
1397
  8
DATA
  6
CONTINUOUS
 62
     7
 10
150.38994849242511
 20
139.13472441421089
 30
0.0
  0
VERTEX
  5
1398
  8
DATA
  6
CONTINUOUS
 62
     7
 10
150.38994849242511
 20
139.13472441421089
 30
0.0
 42
-0.0043770373141336
  0
VERTEX
  5
1399
  8
DATA
  6
CONTINUOUS
 62
     7
 10
150.3301673133322
 20
139.09828116584541
 30
0.0
  0
VERTEX
  5
139A
  8
DATA
  6
CONTINUOUS
 62
     7
 10
150.3301673133322
 20
139.09828116584541
 30
0.0
 42
-0.0039865659283125
  0
VERTEX
  5
139B
  8
DATA
  6
CONTINUOUS
 62
     7
 10
150.26978489152731
 20
139.0628429094765
 30
0.0
  0
VERTEX
  5
139C
  8
DATA
  6
CONTINUOUS
 62
     7
 10
150.269153461852
 20
139.0624790625223
 30
0.0
  0
VERTEX
  5
139D
  8
DATA
  6
CONTINUOUS
 62
     7
 10
150.269153461852
 20
139.0624790625223
 30
0.0
 42
-0.0037957235764134
  0
VERTEX
  5
139E
  8
DATA
  6
CONTINUOUS
 62
     7
 10
150.20695830578799
 20
139.0272667149506
 30
0.0
  0
VERTEX
  5
139F
  8
DATA
  6
CONTINUOUS
 62
     7
 10
150.20630097130081
 20
139.026901120639
 30
0.0
  0
VERTEX
  5
13A0
  8
DATA
  6
CONTINUOUS
 62
     7
 10
150.20630097130081
 20
139.026901120639
 30
0.0
 42
-0.0034827698021758
  0
VERTEX
  5
13A1
  8
DATA
  6
CONTINUOUS
 62
     7
 10
150.1422591550444
 20
138.99186473633111
 30
0.0
  0
VERTEX
  5
13A2
  8
DATA
  6
CONTINUOUS
 62
     7
 10
150.1422591550444
 20
138.99186473633111
 30
0.0
 42
-0.003202304306873
  0
VERTEX
  5
13A3
  8
DATA
  6
CONTINUOUS
 62
     7
 10
150.07773370028571
 20
138.95767661038869
 30
0.0
  0
VERTEX
  5
13A4
  8
DATA
  6
CONTINUOUS
 62
     7
 10
150.06071897973811
 20
138.948800635574
 30
0.0
  0
VERTEX
  5
13A5
  8
DATA
  6
CONTINUOUS
 62
     7
 10
150.06071897973811
 20
138.948800635574
 30
0.0
 42
-0.0056632321752198
  0
VERTEX
  5
13A6
  8
DATA
  6
CONTINUOUS
 62
     7
 10
149.96137423040159
 20
138.89839908537479
 30
0.0
  0
VERTEX
  5
13A7
  8
DATA
  6
CONTINUOUS
 62
     7
 10
149.9437555488017
 20
138.88970992258649
 30
0.0
  0
VERTEX
  5
13A8
  8
DATA
  6
CONTINUOUS
 62
     7
 10
149.9437555488017
 20
138.88970992258649
 30
0.0
 42
-0.0051023064119902
  0
VERTEX
  5
13A9
  8
DATA
  6
CONTINUOUS
 62
     7
 10
149.80793648848311
 20
138.82444132466949
 30
0.0
  0
VERTEX
  5
13AA
  8
DATA
  6
CONTINUOUS
 62
     7
 10
149.78987848986409
 20
138.81598918299201
 30
0.0
  0
VERTEX
  5
13AB
  8
DATA
  6
CONTINUOUS
 62
     7
 10
149.78987848986409
 20
138.81598918299201
 30
0.0
 42
-0.0046565254422802
  0
VERTEX
  5
13AC
  8
DATA
  6
CONTINUOUS
 62
     7
 10
149.6827986181826
 20
138.767080344486
 30
0.0
  0
VERTEX
  5
13AD
  8
DATA
  6
CONTINUOUS
 62
     7
 10
149.6827986181826
 20
138.767080344486
 30
0.0
 42
-0.0021606069110785
  0
VERTEX
  5
13AE
  8
DATA
  6
CONTINUOUS
 62
     7
 10
149.5750582208324
 20
138.719634339365
 30
0.0
  0
VERTEX
  5
13AF
  8
DATA
  6
CONTINUOUS
 62
     7
 10
149.57401344986141
 20
138.71917963001201
 30
0.0
  0
VERTEX
  5
13B0
  8
DATA
  6
CONTINUOUS
 62
     7
 10
149.57401344986141
 20
138.71917963001201
 30
0.0
 42
-0.0039770202975235
  0
VERTEX
  5
13B1
  8
DATA
  6
CONTINUOUS
 62
     7
 10
149.46360454685879
 20
138.6721679884395
 30
0.0
  0
VERTEX
  5
13B2
  8
DATA
  6
CONTINUOUS
 62
     7
 10
149.4438556201172
 20
138.6639439193217
 30
0.0
  0
VERTEX
  5
13B3
  8
DATA
  6
CONTINUOUS
 62
     7
 10
149.4438556201172
 20
138.6639439193217
 30
0.0
 42
-0.0033930702772431
  0
VERTEX
  5
13B4
  8
DATA
  6
CONTINUOUS
 62
     7
 10
149.29315717307861
 20
138.6023850229175
 30
0.0
  0
VERTEX
  5
13B5
  8
DATA
  6
CONTINUOUS
 62
     7
 10
149.2811838898337
 20
138.59758859898699
 30
0.0
  0
VERTEX
  5
13B6
  8
DATA
  6
CONTINUOUS
 62
     7
 10
149.2811838898337
 20
138.59758859898699
 30
0.0
 42
-0.0036643721112957
  0
VERTEX
  5
13B7
  8
DATA
  6
CONTINUOUS
 62
     7
 10
149.1056165893018
 20
138.52874623245549
 30
0.0
  0
VERTEX
  5
13B8
  8
DATA
  6
CONTINUOUS
 62
     7
 10
149.0957773016668
 20
138.5249710711272
 30
0.0
  0
VERTEX
  5
13B9
  8
DATA
  6
CONTINUOUS
 62
     7
 10
149.0957773016668
 20
138.5249710711272
 30
0.0
 42
-0.0027298381727405
  0
VERTEX
  5
13BA
  8
DATA
  6
CONTINUOUS
 62
     7
 10
148.930776914869
 20
138.46269464141349
 30
0.0
  0
VERTEX
  5
13BB
  8
DATA
  6
CONTINUOUS
 62
     7
 10
148.92193718801681
 20
138.4594132696669
 30
0.0
  0
VERTEX
  5
13BC
  8
DATA
  6
CONTINUOUS
 62
     7
 10
148.92193718801681
 20
138.4594132696669
 30
0.0
 42
-0.0026082331874953
  0
VERTEX
  5
13BD
  8
DATA
  6
CONTINUOUS
 62
     7
 10
148.77399433781031
 20
138.40537218302191
 30
0.0
  0
VERTEX
  5
13BE
  8
DATA
  6
CONTINUOUS
 62
     7
 10
148.77399433781031
 20
138.40537218302191
 30
0.0
 42
-0.0018379837833439
  0
VERTEX
  5
13BF
  8
DATA
  6
CONTINUOUS
 62
     7
 10
148.62557577069279
 20
138.35264842421259
 30
0.0
  0
VERTEX
  5
13C0
  8
DATA
  6
CONTINUOUS
 62
     7
 10
148.62380724968949
 20
138.35202749209719
 30
0.0
  0
VERTEX
  5
13C1
  8
DATA
  6
CONTINUOUS
 62
     7
 10
148.62380724968949
 20
138.35202749209719
 30
0.0
 42
-0.0022891162868224
  0
VERTEX
  5
13C2
  8
DATA
  6
CONTINUOUS
 62
     7
 10
148.47141645261459
 20
138.29930513690621
 30
0.0
  0
VERTEX
  5
13C3
  8
DATA
  6
CONTINUOUS
 62
     7
 10
148.45869083452311
 20
138.29496761042401
 30
0.0
  0
VERTEX
  5
13C4
  8
DATA
  6
CONTINUOUS
 62
     7
 10
148.45869083452311
 20
138.29496761042401
 30
0.0
 42
-0.0019960164826306
  0
VERTEX
  5
13C5
  8
DATA
  6
CONTINUOUS
 62
     7
 10
148.28036795036641
 20
138.2349797601039
 30
0.0
  0
VERTEX
  5
13C6
  8
DATA
  6
CONTINUOUS
 62
     7
 10
148.27859708457041
 20
138.23439189936769
 30
0.0
  0
VERTEX
  5
13C7
  8
DATA
  6
CONTINUOUS
 62
     7
 10
148.27859708457041
 20
138.23439189936769
 30
0.0
 42
-0.0018606470400367
  0
VERTEX
  5
13C8
  8
DATA
  6
CONTINUOUS
 62
     7
 10
148.09627055994719
 20
138.17461869420899
 30
0.0
  0
VERTEX
  5
13C9
  8
DATA
  6
CONTINUOUS
 62
     7
 10
148.0922076846816
 20
138.17330346104779
 30
0.0
  0
VERTEX
  5
13CA
  8
DATA
  6
CONTINUOUS
 62
     7
 10
148.0922076846816
 20
138.17330346104779
 30
0.0
 42
-0.0018093315054795
  0
VERTEX
  5
13CB
  8
DATA
  6
CONTINUOUS
 62
     7
 10
147.90131211147181
 20
138.11226907154381
 30
0.0
  0
VERTEX
  5
13CC
  8
DATA
  6
CONTINUOUS
 62
     7
 10
147.8984908485194
 20
138.11137827864641
 30
0.0
  0
VERTEX
  5
13CD
  8
DATA
  6
CONTINUOUS
 62
     7
 10
147.89761150862091
 20
138.11110063048511
 30
0.0
  0
SEQEND
  5
13CE
  8
DATA
  6
CONTINUOUS
 62
     7
  0
POLYLINE
  5
A54
  8
DATA
  6
CONTINUOUS
 62
     7
 66
     1
 10
0.0
 20
0.0
 30
0.0
 70
   128
  0
VERTEX
  5
13CF
  8
DATA
  6
CONTINUOUS
 62
     7
 10
147.8845250195871
 20
133.342500930059
 30
0.0
  0
VERTEX
  5
13D0
  8
DATA
  6
CONTINUOUS
 62
     7
 10
147.88832366040711
 20
133.34130350789681
 30
0.0
 42
-0.0018341627227113
  0
VERTEX
  5
13D1
  8
DATA
  6
CONTINUOUS
 62
     7
 10
148.08245164085159
 20
133.27932594501249
 30
0.0
 42
-0.001878155676031
  0
VERTEX
  5
13D2
  8
DATA
  6
CONTINUOUS
 62
     7
 10
148.27611405126419
 20
133.21590879624529
 30
0.0
  0
VERTEX
  5
13D3
  8
DATA
  6
CONTINUOUS
 62
     7
 10
148.28107616675391
 20
133.2142632267697
 30
0.0
 42
-0.0023700893334666
  0
VERTEX
  5
13D4
  8
DATA
  6
CONTINUOUS
 62
     7
 10
148.47653434682911
 20
133.14841407024619
 30
0.0
  0
VERTEX
  5
13D5
  8
DATA
  6
CONTINUOUS
 62
     7
 10
148.48596746277269
 20
133.14518621782639
 30
0.0
 42
-0.0023743586123949
  0
VERTEX
  5
13D6
  8
DATA
  6
CONTINUOUS
 62
     7
 10
148.66195685971471
 20
133.08403052565021
 30
0.0
  0
VERTEX
  5
13D7
  8
DATA
  6
CONTINUOUS
 62
     7
 10
148.66416217769921
 20
133.083252428977
 30
0.0
 42
-0.0025378967401685
  0
VERTEX
  5
13D8
  8
DATA
  6
CONTINUOUS
 62
     7
 10
148.8351393621783
 20
133.02194935108739
 30
0.0
  0
VERTEX
  5
13D9
  8
DATA
  6
CONTINUOUS
 62
     7
 10
148.8369709700107
 20
133.02128212536289
 30
0.0
 42
-0.002722482676839
  0
VERTEX
  5
13DA
  8
DATA
  6
CONTINUOUS
 62
     7
 10
149.00363757874749
 20
132.9595381478178
 30
0.0
  0
VERTEX
  5
13DB
  8
DATA
  6
CONTINUOUS
 62
     7
 10
149.01562609080381
 20
132.95502244927201
 30
0.0
 42
-0.0028670137572055
  0
VERTEX
  5
13DC
  8
DATA
  6
CONTINUOUS
 62
     7
 10
149.15766734730889
 20
132.90058789301429
 30
0.0
  0
VERTEX
  5
13DD
  8
DATA
  6
CONTINUOUS
 62
     7
 10
149.17892735107691
 20
132.89230029073909
 30
0.0
 42
-0.0022795343512243
  0
VERTEX
  5
13DE
  8
DATA
  6
CONTINUOUS
 62
     7
 10
149.27795809230111
 20
132.8531749735649
 30
0.0
 42
-0.0016093830263536
  0
VERTEX
  5
13DF
  8
DATA
  6
CONTINUOUS
 62
     7
 10
149.37668204594431
 20
132.81328039595829
 30
0.0
  0
VERTEX
  5
13E0
  8
DATA
  6
CONTINUOUS
 62
     7
 10
149.38544353101179
 20
132.80970701041659
 30
0.0
 42
-0.0037878152617018
  0
VERTEX
  5
13E1
  8
DATA
  6
CONTINUOUS
 62
     7
 10
149.5011966195303
 20
132.76147097638091
 30
0.0
  0
VERTEX
  5
13E2
  8
DATA
  6
CONTINUOUS
 62
     7
 10
149.52074077544901
 20
132.75315231304259
 30
0.0
 42
-0.0042432583586366
  0
VERTEX
  5
13E3
  8
DATA
  6
CONTINUOUS
 62
     7
 10
149.66734429090801
 20
132.68927792296071
 30
0.0
  0
VERTEX
  5
13E4
  8
DATA
  6
CONTINUOUS
 62
     7
 10
149.68640644792029
 20
132.68077944198649
 30
0.0
 42
-0.0047889312990184
  0
VERTEX
  5
13E5
  8
DATA
  6
CONTINUOUS
 62
     7
 10
149.79387279690991
 20
132.63162851673579
 30
0.0
  0
VERTEX
  5
13E6
  8
DATA
  6
CONTINUOUS
 62
     7
 10
149.79500251571031
 20
132.6310986857878
 30
0.0
 42
-0.0025133177611101
  0
VERTEX
  5
13E7
  8
DATA
  6
CONTINUOUS
 62
     7
 10
149.89948910255441
 20
132.58145288159571
 30
0.0
  0
VERTEX
  5
13E8
  8
DATA
  6
CONTINUOUS
 62
     7
 10
149.8999859891517
 20
132.58121372178641
 30
0.0
 42
-0.005546931845397
  0
VERTEX
  5
13E9
  8
DATA
  6
CONTINUOUS
 62
     7
 10
150.00266531090239
 20
132.5303818724573
 30
0.0
  0
VERTEX
  5
13EA
  8
DATA
  6
CONTINUOUS
 62
     7
 10
150.02047696417131
 20
132.52131674129171
 30
0.0
 42
-0.0029840181268463
  0
VERTEX
  5
13EB
  8
DATA
  6
CONTINUOUS
 62
     7
 10
150.08676471486541
 20
132.48708039762261
 30
0.0
  0
VERTEX
  5
13EC
  8
DATA
  6
CONTINUOUS
 62
     7
 10
150.08690150989079
 20
132.4870087082522
 30
0.0
 42
-0.0032702562449401
  0
VERTEX
  5
13ED
  8
DATA
  6
CONTINUOUS
 62
     7
 10
150.15248296407569
 20
132.45209119119451
 30
0.0
  0
VERTEX
  5
13EE
  8
DATA
  6
CONTINUOUS
 62
     7
 10
150.15263029038201
 20
132.45201150920201
 30
0.0
 42
-0.0035953208969455
  0
VERTEX
  5
13EF
  8
DATA
  6
CONTINUOUS
 62
     7
 10
150.2174323392986
 20
132.4163584408771
 30
0.0
  0
VERTEX
  5
13F0
  8
DATA
  6
CONTINUOUS
 62
     7
 10
150.21810072245239
 20
132.41598442110211
 30
0.0
 42
-0.0038816303148016
  0
VERTEX
  5
13F1
  8
DATA
  6
CONTINUOUS
 62
     7
 10
150.2810312420267
 20
132.38012486459641
 30
0.0
  0
VERTEX
  5
13F2
  8
DATA
  6
CONTINUOUS
 62
     7
 10
150.2815489092597
 20
132.37982453600449
 30
0.0
 42
-0.0041333382578572
  0
VERTEX
  5
13F3
  8
DATA
  6
CONTINUOUS
 62
     7
 10
150.34286599498711
 20
132.343570186124
 30
0.0
 42
-0.0045385570115673
  0
VERTEX
  5
13F4
  8
DATA
  6
CONTINUOUS
 62
     7
 10
150.4035450622444
 20
132.30625789562649
 30
0.0
  0
VERTEX
  5
13F5
  8
DATA
  6
CONTINUOUS
 62
     7
 10
150.4040501958107
 20
132.30594092842401
 30
0.0
 42
-0.0049374596297333
  0
VERTEX
  5
13F6
  8
DATA
  6
CONTINUOUS
 62
     7
 10
150.46300728986759
 20
132.2681293181499
 30
0.0
  0
VERTEX
  5
13F7
  8
DATA
  6
CONTINUOUS
 62
     7
 10
150.46376789429149
 20
132.2676308431316
 30
0.0
 42
-0.0051953543092342
  0
VERTEX
  5
13F8
  8
DATA
  6
CONTINUOUS
 62
     7
 10
150.5204356747503
 20
132.22964513786849
 30
0.0
  0
VERTEX
  5
13F9
  8
DATA
  6
CONTINUOUS
 62
     7
 10
150.52069399893989
 20
132.22946805962459
 30
0.0
 42
-0.0056587399525584
  0
VERTEX
  5
13FA
  8
DATA
  6
CONTINUOUS
 62
     7
 10
150.57601076398049
 20
132.1906216101371
 30
0.0
  0
VERTEX
  5
13FB
  8
DATA
  6
CONTINUOUS
 62
     7
 10
150.57609810554061
 20
132.1905587862874
 30
0.0
 42
-0.0062226678541495
  0
VERTEX
  5
13FC
  8
DATA
  6
CONTINUOUS
 62
     7
 10
150.63030242936341
 20
132.1505373009457
 30
0.0
  0
VERTEX
  5
13FD
  8
DATA
  6
CONTINUOUS
 62
     7
 10
150.631217316836
 20
132.14984404136121
 30
0.0
 42
-0.006730728518119
  0
VERTEX
  5
13FE
  8
DATA
  6
CONTINUOUS
 62
     7
 10
150.68255527352881
 20
132.10984334305161
 30
0.0
  0
VERTEX
  5
13FF
  8
DATA
  6
CONTINUOUS
 62
     7
 10
150.68336719498421
 20
132.10919297091601
 30
0.0
 42
-0.0069895465740272
  0
VERTEX
  5
1400
  8
DATA
  6
CONTINUOUS
 62
     7
 10
150.73198263724601
 20
132.0691222688715
 30
0.0
 42
-0.007773393159245
  0
VERTEX
  5
1401
  8
DATA
  6
CONTINUOUS
 62
     7
 10
150.7793942786418
 20
132.02763349526899
 30
0.0
  0
VERTEX
  5
1402
  8
DATA
  6
CONTINUOUS
 62
     7
 10
150.77995858546791
 20
132.02712397820829
 30
0.0
 42
-0.0085559946123957
  0
VERTEX
  5
1403
  8
DATA
  6
CONTINUOUS
 62
     7
 10
150.82487963055121
 20
131.98514705545219
 30
0.0
  0
VERTEX
  5
1404
  8
DATA
  6
CONTINUOUS
 62
     7
 10
150.82591202218799
 20
131.98414869368389
 30
0.0
 42
-0.0088895021040388
  0
VERTEX
  5
1405
  8
DATA
  6
CONTINUOUS
 62
     7
 10
150.8673123014529
 20
131.94266363583949
 30
0.0
  0
VERTEX
  5
1406
  8
DATA
  6
CONTINUOUS
 62
     7
 10
150.8677828768574
 20
131.94217502427361
 30
0.0
 42
-0.0093508216890229
  0
VERTEX
  5
1407
  8
DATA
  6
CONTINUOUS
 62
     7
 10
150.906719366462
 20
131.900202835633
 30
0.0
 42
-0.0102482189400886
  0
VERTEX
  5
1408
  8
DATA
  6
CONTINUOUS
 62
     7
 10
150.94397375138459
 20
131.85674639520619
 30
0.0
 42
-0.0111345208953679
  0
VERTEX
  5
1409
  8
DATA
  6
CONTINUOUS
 62
     7
 10
150.97932882085539
 20
131.81174652186999
 30
0.0
  0
VERTEX
  5
140A
  8
DATA
  6
CONTINUOUS
 62
     7
 10
150.9815635841324
 20
131.8087679104712
 30
0.0
 42
-0.015385665549698
  0
VERTEX
  5
140B
  8
DATA
  6
CONTINUOUS
 62
     7
 10
151.01875809194331
 20
131.75587859768581
 30
0.0
  0
VERTEX
  5
140C
  8
DATA
  6
CONTINUOUS
 62
     7
 10
151.0208062777547
 20
131.75276692142609
 30
0.0
  0
VERTEX
  5
140D
  8
DATA
  6
CONTINUOUS
 62
     7
 10
151.02114824354121
 20
131.75224686999209
 30
0.0
  0
SEQEND
  5
140E
  8
DATA
  6
CONTINUOUS
 62
     7
  0
POLYLINE
  5
A95
  8
DATA
  6
CONTINUOUS
 62
     7
 66
     1
 10
0.0
 20
0.0
 30
0.0
 70
   128
  0
VERTEX
  5
140F
  8
DATA
  6
CONTINUOUS
 62
     7
 10
147.7873530348833
 20
133.37200292073621
 30
0.0
  0
VERTEX
  5
1410
  8
DATA
  6
CONTINUOUS
 62
     7
 10
147.79548856848899
 20
133.36962756216471
 30
0.0
 42
-0.0035338276029169
  0
VERTEX
  5
1411
  8
DATA
  6
CONTINUOUS
 62
     7
 10
147.8436891279874
 20
133.35518381067541
 30
0.0
  0
VERTEX
  5
1412
  8
DATA
  6
CONTINUOUS
 62
     7
 10
147.85153696012969
 20
133.35277155847061
 30
0.0
 42
-0.0017743013241456
  0
VERTEX
  5
1413
  8
DATA
  6
CONTINUOUS
 62
     7
 10
147.8839040191292
 20
133.3426967840085
 30
0.0
  0
VERTEX
  5
1414
  8
DATA
  6
CONTINUOUS
 62
     7
 10
147.88415660123789
 20
133.34261717222989
 30
0.0
  0
SEQEND
  5
1415
  8
DATA
  6
CONTINUOUS
 62
     7
  0
POLYLINE
  5
A9D
  8
DATA
  6
CONTINUOUS
 62
     7
 66
     1
 10
0.0
 20
0.0
 30
0.0
 70
   128
  0
VERTEX
  5
1416
  8
DATA
  6
CONTINUOUS
 62
     7
 10
147.8841564866058
 20
138.10685499044189
 30
0.0
  0
VERTEX
  5
1417
  8
DATA
  6
CONTINUOUS
 62
     7
 10
147.87582066402311
 20
138.10422768561759
 30
0.0
 42
-0.0035402420107918
  0
VERTEX
  5
1418
  8
DATA
  6
CONTINUOUS
 62
     7
 10
147.82772395328931
 20
138.08944199648579
 30
0.0
  0
VERTEX
  5
1419
  8
DATA
  6
CONTINUOUS
 62
     7
 10
147.8196056299108
 20
138.08700907362891
 30
0.0
 42
-0.0017767007622519
  0
VERTEX
  5
141A
  8
DATA
  6
CONTINUOUS
 62
     7
 10
147.78760723964641
 20
138.0775434859587
 30
0.0
  0
VERTEX
  5
141B
  8
DATA
  6
CONTINUOUS
 62
     7
 10
147.7873530190501
 20
138.0774692734353
 30
0.0
  0
SEQEND
  5
141C
  8
DATA
  6
CONTINUOUS
 62
     7
  0
LINE
  5
AA5
  8
DATA
  6
CONTINUOUS
 62
     7
 10
143.26665336829871
 20
130.26240205918921
 30
0.0
 11
143.26665337299261
 21
130.26240206283899
 31
0.0
  0
POLYLINE
  5
AA6
  8
DATA
  6
CONTINUOUS
 62
     7
 66
     1
 10
0.0
 20
0.0
 30
0.0
 70
   128
  0
VERTEX
  5
141D
  8
DATA
  6
CONTINUOUS
 62
     7
 10
143.96203607566881
 20
130.41035312186369
 30
0.0
 42
5836932.7927081613
  0
VERTEX
  5
141E
  8
DATA
  6
CONTINUOUS
 62
     7
 10
143.96203613487901
 20
130.4103531319179
 30
0.0
  0
VERTEX
  5
141F
  8
DATA
  6
CONTINUOUS
 62
     7
 10
143.9620362061676
 20
130.41035314402291
 30
0.0
  0
SEQEND
  5
1420
  8
DATA
  6
CONTINUOUS
 62
     7
  0
LINE
  5
AAB
  8
DATA
  6
CONTINUOUS
 62
     7
 10
151.18171329622211
 20
131.23048843166541
 30
0.0
 11
151.18171329660791
 21
131.23048907902211
 31
0.0
  0
LINE
  5
AAC
  8
DATA
  6
CONTINUOUS
 62
     7
 10
151.18171318634231
 20
131.23048905065579
 30
0.0
 11
151.18171318585621
 21
131.23048966682109
 31
0.0
  0
POLYLINE
  5
AAD
  8
DATA
  6
CONTINUOUS
 62
     7
 66
     1
 10
0.0
 20
0.0
 30
0.0
 70
   128
  0
VERTEX
  5
1421
  8
DATA
  6
CONTINUOUS
 62
     7
 10
151.18171318634231
 20
131.23048905065579
 30
0.0
  0
VERTEX
  5
1422
  8
DATA
  6
CONTINUOUS
 62
     7
 10
151.18171318851199
 20
131.2304890464537
 30
0.0
  0
VERTEX
  5
1423
  8
DATA
  6
CONTINUOUS
 62
     7
 10
151.1817132487493
 20
131.23048892978991
 30
0.0
  0
SEQEND
  5
1424
  8
DATA
  6
CONTINUOUS
 62
     7
  0
LINE
  5
AB2
  8
DATA
  6
CONTINUOUS
 62
     7
 10
146.25850209177901
 20
133.81313418694609
 30
0.0
 11
146.2585020289014
 21
133.8131342038694
 31
0.0
  0
LINE
  5
AB3
  8
DATA
  6
CONTINUOUS
 62
     7
 10
146.25850209177901
 20
133.81313418694609
 30
0.0
 11
146.25850207865929
 21
133.81313422650319
 31
0.0
  0
LINE
  5
AB4
  8
DATA
  6
CONTINUOUS
 62
     7
 10
143.96202020616619
 20
136.79248884322459
 30
0.0
 11
143.9620202084941
 21
136.79248884013481
 31
0.0
  0
LINE
  5
AB5
  8
DATA
  6
CONTINUOUS
 62
     7
 10
146.25401827239961
 20
137.6351417952821
 30
0.0
 11
146.25402189328139
 21
137.6351427696446
 31
0.0
  0
POLYLINE
  5
AB6
  8
DATA
  6
CONTINUOUS
 62
     7
 66
     1
 10
0.0
 20
0.0
 30
0.0
 70
   128
  0
VERTEX
  5
1425
  8
DATA
  6
CONTINUOUS
 62
     7
 10
181.51432250481579
 20
138.4052669439258
 30
0.0
 42
0.0011294476393384
  0
VERTEX
  5
1426
  8
DATA
  6
CONTINUOUS
 62
     7
 10
181.5309591240912
 20
138.40437403844939
 30
0.0
  0
VERTEX
  5
1427
  8
DATA
  6
CONTINUOUS
 62
     7
 10
181.53407899389941
 20
138.40421365855099
 30
0.0
 42
0.0021420242759971
  0
VERTEX
  5
1428
  8
DATA
  6
CONTINUOUS
 62
     7
 10
181.55696198822409
 20
138.40313560601501
 30
0.0
  0
VERTEX
  5
1429
  8
DATA
  6
CONTINUOUS
 62
     7
 10
181.55976227428599
 20
138.40301570111231
 30
0.0
 42
0.0020074310687175
  0
VERTEX
  5
142A
  8
DATA
  6
CONTINUOUS
 62
     7
 10
181.58762467890219
 20
138.4019347162419
 30
0.0
 42
0.0023602948539985
  0
VERTEX
  5
142B
  8
DATA
  6
CONTINUOUS
 62
     7
 10
181.61549537731111
 20
138.4010971624007
 30
0.0
  0
VERTEX
  5
142C
  8
DATA
  6
CONTINUOUS
 62
     7
 10
181.6190264328641
 20
138.40100773063969
 30
0.0
 42
0.0026262654352243
  0
VERTEX
  5
142D
  8
DATA
  6
CONTINUOUS
 62
     7
 10
181.6420511195526
 20
138.40054557991729
 30
0.0
  0
VERTEX
  5
142E
  8
DATA
  6
CONTINUOUS
 62
     7
 10
181.64603093746609
 20
138.4004866076265
 30
0.0
 42
0.0016900652578206
  0
VERTEX
  5
142F
  8
DATA
  6
CONTINUOUS
 62
     7
 10
181.6610989983225
 20
138.4003142723553
 30
0.0
  0
VERTEX
  5
1430
  8
DATA
  6
CONTINUOUS
 62
     7
 10
181.66209965827969
 20
138.40030621036641
 30
0.0
 42
0.0014385769879985
  0
VERTEX
  5
1431
  8
DATA
  6
CONTINUOUS
 62
     7
 10
181.67516717647041
 20
138.4002385285703
 30
0.0
 42
0.0015738477545506
  0
VERTEX
  5
1432
  8
DATA
  6
CONTINUOUS
 62
     7
 10
181.6882347483739
 20
138.4002495771978
 30
0.0
  0
VERTEX
  5
1433
  8
DATA
  6
CONTINUOUS
 62
     7
 10
181.68833696286859
 20
138.40024998536731
 30
0.0
 42
0.0017111985664587
  0
VERTEX
  5
1434
  8
DATA
  6
CONTINUOUS
 62
     7
 10
181.70119963831189
 20
138.4003453720521
 30
0.0
  0
VERTEX
  5
1435
  8
DATA
  6
CONTINUOUS
 62
     7
 10
181.7013017869896
 20
138.40034647918591
 30
0.0
 42
0.0017899368378313
  0
VERTEX
  5
1436
  8
DATA
  6
CONTINUOUS
 62
     7
 10
181.71395918527571
 20
138.40052898494741
 30
0.0
  0
VERTEX
  5
1437
  8
DATA
  6
CONTINUOUS
 62
     7
 10
181.71416332445429
 20
138.4005326752023
 30
0.0
  0
SEQEND
  5
1438
  8
DATA
  6
CONTINUOUS
 62
     7
  0
POLYLINE
  5
ACB
  8
DATA
  6
CONTINUOUS
 62
     7
 66
     1
 10
0.0
 20
0.0
 30
0.0
 70
   128
  0
VERTEX
  5
1439
  8
DATA
  6
CONTINUOUS
 62
     7
 10
178.18101850945581
 20
132.9580970988691
 30
0.0
  0
VERTEX
  5
143A
  8
DATA
  6
CONTINUOUS
 62
     7
 10
178.27051847506851
 20
132.95810361400291
 30
0.0
 42
0.0023529578493001
  0
VERTEX
  5
143B
  8
DATA
  6
CONTINUOUS
 62
     7
 10
178.78513083848819
 20
132.96056281176649
 30
0.0
  0
VERTEX
  5
143C
  8
DATA
  6
CONTINUOUS
 62
     7
 10
178.8649181386113
 20
132.96131958579181
 30
0.0
 42
0.0013372657897012
  0
VERTEX
  5
143D
  8
DATA
  6
CONTINUOUS
 62
     7
 10
179.2199327832771
 20
132.9656364708884
 30
0.0
  0
VERTEX
  5
143E
  8
DATA
  6
CONTINUOUS
 62
     7
 10
179.22519135580211
 20
132.96571448053339
 30
0.0
 42
0.0013638026260701
  0
VERTEX
  5
143F
  8
DATA
  6
CONTINUOUS
 62
     7
 10
179.56966080786219
 20
132.97176442435051
 30
0.0
  0
VERTEX
  5
1440
  8
DATA
  6
CONTINUOUS
 62
     7
 10
179.57344037907339
 20
132.9718411181255
 30
0.0
 42
0.001369832640057
  0
VERTEX
  5
1441
  8
DATA
  6
CONTINUOUS
 62
     7
 10
179.91031292957041
 20
132.97960017258879
 30
0.0
 42
0.0014384034536406
  0
VERTEX
  5
1442
  8
DATA
  6
CONTINUOUS
 62
     7
 10
180.24713602323351
 20
132.98925111259359
 30
0.0
 42
0.0015005376002891
  0
VERTEX
  5
1443
  8
DATA
  6
CONTINUOUS
 62
     7
 10
180.58389601308011
 20
133.00088166270729
 30
0.0
  0
VERTEX
  5
1444
  8
DATA
  6
CONTINUOUS
 62
     7
 10
180.6217508761863
 20
133.0023027943829
 30
0.0
 42
0.0023197973113395
  0
VERTEX
  5
1445
  8
DATA
  6
CONTINUOUS
 62
     7
 10
181.0341049742938
 20
133.01969941832931
 30
0.0
  0
VERTEX
  5
1446
  8
DATA
  6
CONTINUOUS
 62
     7
 10
181.07194528153559
 20
133.02147175779569
 30
0.0
 42
0.0022343828248598
  0
VERTEX
  5
1447
  8
DATA
  6
CONTINUOUS
 62
     7
 10
181.50730232874639
 20
133.0438129198111
 30
0.0
  0
VERTEX
  5
1448
  8
DATA
  6
CONTINUOUS
 62
     7
 10
181.5143225018825
 20
133.04420530661179
 30
0.0
  0
SEQEND
  5
1449
  8
DATA
  6
CONTINUOUS
 62
     7
  0
POLYLINE
  5
ADD
  8
DATA
  6
CONTINUOUS
 62
     7
 66
     1
 10
0.0
 20
0.0
 30
0.0
 70
   128
  0
VERTEX
  5
144A
  8
DATA
  6
CONTINUOUS
 62
     7
 10
178.18101850945581
 20
132.9580970988691
 30
0.0
  0
VERTEX
  5
144B
  8
DATA
  6
CONTINUOUS
 62
     7
 10
178.0239100063275
 20
132.95810186511719
 30
0.0
 42
-0.0039493474163
  0
VERTEX
  5
144C
  8
DATA
  6
CONTINUOUS
 62
     7
 10
177.2084912700744
 20
132.96456744848959
 30
0.0
  0
VERTEX
  5
144D
  8
DATA
  6
CONTINUOUS
 62
     7
 10
177.0628186379129
 20
132.9668732957262
 30
0.0
 42
-0.0021422689574652
  0
VERTEX
  5
144E
  8
DATA
  6
CONTINUOUS
 62
     7
 10
176.53884139458819
 20
132.97741303951241
 30
0.0
  0
VERTEX
  5
144F
  8
DATA
  6
CONTINUOUS
 62
     7
 10
176.5314733690951
 20
132.9775928307476
 30
0.0
 42
-0.002185719389982
  0
VERTEX
  5
1450
  8
DATA
  6
CONTINUOUS
 62
     7
 10
176.02234138037281
 20
132.99224365268461
 30
0.0
  0
VERTEX
  5
1451
  8
DATA
  6
CONTINUOUS
 62
     7
 10
176.0102644326997
 20
132.99264402412931
 30
0.0
 42
-0.0023234928797597
  0
VERTEX
  5
1452
  8
DATA
  6
CONTINUOUS
 62
     7
 10
175.5254355586265
 20
133.01097275816591
 30
0.0
  0
VERTEX
  5
1453
  8
DATA
  6
CONTINUOUS
 62
     7
 10
175.5144949378755
 20
133.0114372861247
 30
0.0
 42
-0.0022920941138805
  0
VERTEX
  5
1454
  8
DATA
  6
CONTINUOUS
 62
     7
 10
175.05173229616059
 20
133.03321137148001
 30
0.0
  0
VERTEX
  5
1455
  8
DATA
  6
CONTINUOUS
 62
     7
 10
175.0446054626361
 20
133.03357945629841
 30
0.0
 42
-0.0024762028639585
  0
VERTEX
  5
1456
  8
DATA
  6
CONTINUOUS
 62
     7
 10
174.59632199492231
 20
133.05895886944251
 30
0.0
  0
VERTEX
  5
1457
  8
DATA
  6
CONTINUOUS
 62
     7
 10
174.58546805525151
 20
133.05962730233301
 30
0.0
 42
-0.0025042990791551
  0
VERTEX
  5
1458
  8
DATA
  6
CONTINUOUS
 62
     7
 10
174.15916039116101
 20
133.0880251620944
 30
0.0
  0
VERTEX
  5
1459
  8
DATA
  6
CONTINUOUS
 62
     7
 10
174.15330383918129
 20
133.08844476101001
 30
0.0
 42
-0.0026341410501905
  0
VERTEX
  5
145A
  8
DATA
  6
CONTINUOUS
 62
     7
 10
173.7390194487661
 20
133.1203212222953
 30
0.0
  0
VERTEX
  5
145B
  8
DATA
  6
CONTINUOUS
 62
     7
 10
173.729299414357
 20
133.12112064736141
 30
0.0
 42
-0.0027879917592731
  0
VERTEX
  5
145C
  8
DATA
  6
CONTINUOUS
 62
     7
 10
173.3348162923246
 20
133.15578048918181
 30
0.0
  0
VERTEX
  5
145D
  8
DATA
  6
CONTINUOUS
 62
     7
 10
173.32723000817111
 20
133.15648967954431
 30
0.0
 42
-0.0028198796611386
  0
VERTEX
  5
145E
  8
DATA
  6
CONTINUOUS
 62
     7
 10
172.94832465156301
 20
133.19406774113369
 30
0.0
  0
VERTEX
  5
145F
  8
DATA
  6
CONTINUOUS
 62
     7
 10
172.94145708181711
 20
133.1947879691831
 30
0.0
 42
-0.0030720597768723
  0
VERTEX
  5
1460
  8
DATA
  6
CONTINUOUS
 62
     7
 10
172.57674773139851
 20
133.2353033656828
 30
0.0
  0
VERTEX
  5
1461
  8
DATA
  6
CONTINUOUS
 62
     7
 10
172.5679692326114
 20
133.23633320471151
 30
0.0
 42
-0.003105440290775
  0
VERTEX
  5
1462
  8
DATA
  6
CONTINUOUS
 62
     7
 10
172.22133194925641
 20
133.27918270568759
 30
0.0
  0
VERTEX
  5
1463
  8
DATA
  6
CONTINUOUS
 62
     7
 10
172.2166932046313
 20
133.27978539690201
 30
0.0
 42
-0.003345120146874
  0
VERTEX
  5
1464
  8
DATA
  6
CONTINUOUS
 62
     7
 10
171.8799076370039
 20
133.3258356605717
 30
0.0
  0
VERTEX
  5
1465
  8
DATA
  6
CONTINUOUS
 62
     7
 10
171.8720054018826
 20
133.32697007629309
 30
0.0
 42
-0.0035324108734114
  0
VERTEX
  5
1466
  8
DATA
  6
CONTINUOUS
 62
     7
 10
171.55167361452001
 20
133.3752678253245
 30
0.0
 42
-0.0036585198360827
  0
VERTEX
  5
1467
  8
DATA
  6
CONTINUOUS
 62
     7
 10
171.23207011893621
 20
133.42816727233031
 30
0.0
  0
VERTEX
  5
1468
  8
DATA
  6
CONTINUOUS
 62
     7
 10
171.21191456485991
 20
133.43165504117789
 30
0.0
 42
-0.0050561070129195
  0
VERTEX
  5
1469
  8
DATA
  6
CONTINUOUS
 62
     7
 10
170.88149166040441
 20
133.49227974827821
 30
0.0
  0
VERTEX
  5
146A
  8
DATA
  6
CONTINUOUS
 62
     7
 10
170.8562703665923
 20
133.49717137855609
 30
0.0
 42
-0.0041802396747978
  0
VERTEX
  5
146B
  8
DATA
  6
CONTINUOUS
 62
     7
 10
170.57737561262931
 20
133.5536859522266
 30
0.0
  0
VERTEX
  5
146C
  8
DATA
  6
CONTINUOUS
 62
     7
 10
170.5490673880621
 20
133.55966907486939
 30
0.0
 42
-0.0046670829077779
  0
VERTEX
  5
146D
  8
DATA
  6
CONTINUOUS
 62
     7
 10
170.32771846245981
 20
133.60861529040989
 30
0.0
  0
VERTEX
  5
146E
  8
DATA
  6
CONTINUOUS
 62
     7
 10
170.32133304490171
 20
133.61008992600941
 30
0.0
 42
-0.002982610779912
  0
VERTEX
  5
146F
  8
DATA
  6
CONTINUOUS
 62
     7
 10
170.11350594145549
 20
133.6593927686769
 30
0.0
 42
-0.005049944088314
  0
VERTEX
  5
1470
  8
DATA
  6
CONTINUOUS
 62
     7
 10
169.90650454733711
 20
133.7120261013423
 30
0.0
  0
VERTEX
  5
1471
  8
DATA
  6
CONTINUOUS
 62
     7
 10
169.85485562651829
 20
133.7257154624757
 30
0.0
 42
-0.0056801584303319
  0
VERTEX
  5
1472
  8
DATA
  6
CONTINUOUS
 62
     7
 10
169.66574233636439
 20
133.77814559045811
 30
0.0
  0
VERTEX
  5
1473
  8
DATA
  6
CONTINUOUS
 62
     7
 10
169.66002063181941
 20
133.7798021066329
 30
0.0
 42
-0.0031896786929601
  0
VERTEX
  5
1474
  8
DATA
  6
CONTINUOUS
 62
     7
 10
169.4832806302372
 20
133.8321951575883
 30
0.0
 42
-0.0062337823370227
  0
VERTEX
  5
1475
  8
DATA
  6
CONTINUOUS
 62
     7
 10
169.30756947759659
 20
133.88790648294261
 30
0.0
  0
VERTEX
  5
1476
  8
DATA
  6
CONTINUOUS
 62
     7
 10
169.28066996195381
 20
133.896805861552
 30
0.0
 42
-0.0069284027573419
  0
VERTEX
  5
1477
  8
DATA
  6
CONTINUOUS
 62
     7
 10
169.0689159887369
 20
133.97013264289279
 30
0.0
  0
VERTEX
  5
1478
  8
DATA
  6
CONTINUOUS
 62
     7
 10
169.0638561281387
 20
133.97196368946771
 30
0.0
 42
-0.0074599315713784
  0
VERTEX
  5
1479
  8
DATA
  6
CONTINUOUS
 62
     7
 10
168.8643656401924
 20
134.04753928856499
 30
0.0
  0
VERTEX
  5
147A
  8
DATA
  6
CONTINUOUS
 62
     7
 10
168.8376320973249
 20
134.0581258319009
 30
0.0
 42
-0.0082817654203715
  0
VERTEX
  5
147B
  8
DATA
  6
CONTINUOUS
 62
     7
 10
168.69372628635369
 20
134.11788863258491
 30
0.0
  0
VERTEX
  5
147C
  8
DATA
  6
CONTINUOUS
 62
     7
 10
168.66833066284369
 20
134.1289318467482
 30
0.0
 42
-0.0044979552010119
  0
VERTEX
  5
147D
  8
DATA
  6
CONTINUOUS
 62
     7
 10
168.57657386021069
 20
134.1698174236154
 30
0.0
 42
-0.0045304371261635
  0
VERTEX
  5
147E
  8
DATA
  6
CONTINUOUS
 62
     7
 10
168.48557028580581
 20
134.21235304202679
 30
0.0
  0
VERTEX
  5
147F
  8
DATA
  6
CONTINUOUS
 62
     7
 10
168.46516523986591
 20
134.22211672575929
 30
0.0
 42
-0.0100842894471478
  0
VERTEX
  5
1480
  8
DATA
  6
CONTINUOUS
 62
     7
 10
168.33505840791619
 20
134.28762863728591
 30
0.0
  0
VERTEX
  5
1481
  8
DATA
  6
CONTINUOUS
 62
     7
 10
168.2927158114704
 20
134.3100307521228
 30
0.0
 42
-0.0112641677211853
  0
VERTEX
  5
1482
  8
DATA
  6
CONTINUOUS
 62
     7
 10
168.1729508642625
 20
134.37689000426639
 30
0.0
 42
-0.005879858013604
  0
VERTEX
  5
1483
  8
DATA
  6
CONTINUOUS
 62
     7
 10
168.05552658275991
 20
134.44782862764521
 30
0.0
  0
VERTEX
  5
1484
  8
DATA
  6
CONTINUOUS
 62
     7
 10
168.05363165764311
 20
134.44900402936059
 30
0.0
 42
-0.0149907511507275
  0
VERTEX
  5
1485
  8
DATA
  6
CONTINUOUS
 62
     7
 10
167.93559715310971
 20
134.5272140273257
 30
0.0
  0
VERTEX
  5
1486
  8
DATA
  6
CONTINUOUS
 62
     7
 10
167.90956266572371
 20
134.5456108310016
 30
0.0
 42
-0.0144916854220465
  0
VERTEX
  5
1487
  8
DATA
  6
CONTINUOUS
 62
     7
 10
167.79370310796429
 20
134.6326220299344
 30
0.0
  0
VERTEX
  5
1488
  8
DATA
  6
CONTINUOUS
 62
     7
 10
167.77819408213441
 20
134.64498822394759
 30
0.0
 42
-0.0144156230595591
  0
VERTEX
  5
1489
  8
DATA
  6
CONTINUOUS
 62
     7
 10
167.6978346141903
 20
134.712943085907
 30
0.0
  0
VERTEX
  5
148A
  8
DATA
  6
CONTINUOUS
 62
     7
 10
167.68713209689761
 20
134.7225360842761
 30
0.0
 42
-0.0090714480780023
  0
VERTEX
  5
148B
  8
DATA
  6
CONTINUOUS
 62
     7
 10
167.63108267473561
 20
134.77463927719779
 30
0.0
 42
-0.0095577655124846
  0
VERTEX
  5
148C
  8
DATA
  6
CONTINUOUS
 62
     7
 10
167.57701390684801
 20
134.82879310028821
 30
0.0
  0
VERTEX
  5
148D
  8
DATA
  6
CONTINUOUS
 62
     7
 10
167.56495071219931
 20
134.8413462463933
 30
0.0
 42
-0.0202544366900237
  0
VERTEX
  5
148E
  8
DATA
  6
CONTINUOUS
 62
     7
 10
167.49116595135101
 20
134.92463017355419
 30
0.0
  0
VERTEX
  5
148F
  8
DATA
  6
CONTINUOUS
 62
     7
 10
167.4769116127494
 20
134.9420962498348
 30
0.0
 42
-0.0210686497197311
  0
VERTEX
  5
1490
  8
DATA
  6
CONTINUOUS
 62
     7
 10
167.40095537913069
 20
135.0436124523595
 30
0.0
  0
VERTEX
  5
1491
  8
DATA
  6
CONTINUOUS
 62
     7
 10
167.39076151042889
 20
135.05850548593381
 30
0.0
 42
-0.018907223882019
  0
VERTEX
  5
1492
  8
DATA
  6
CONTINUOUS
 62
     7
 10
167.34237630060539
 20
135.13526794750089
 30
0.0
  0
VERTEX
  5
1493
  8
DATA
  6
CONTINUOUS
 62
     7
 10
167.33590891129131
 20
135.14644371634171
 30
0.0
 42
-0.0120181507427844
  0
VERTEX
  5
1494
  8
DATA
  6
CONTINUOUS
 62
     7
 10
167.3047322921777
 20
135.20343443339129
 30
0.0
 42
-0.0137045966543777
  0
VERTEX
  5
1495
  8
DATA
  6
CONTINUOUS
 62
     7
 10
167.27652982194991
 20
135.26194778147749
 30
0.0
  0
VERTEX
  5
1496
  8
DATA
  6
CONTINUOUS
 62
     7
 10
167.2725460971655
 20
135.27082731591261
 30
0.0
 42
-0.0238329655571023
  0
VERTEX
  5
1497
  8
DATA
  6
CONTINUOUS
 62
     7
 10
167.24172492486579
 20
135.3493428398626
 30
0.0
  0
VERTEX
  5
1498
  8
DATA
  6
CONTINUOUS
 62
     7
 10
167.23765082499571
 20
135.3613779430207
 30
0.0
 42
-0.018166588650153
  0
VERTEX
  5
1499
  8
DATA
  6
CONTINUOUS
 62
     7
 10
167.2176785093929
 20
135.4282868061502
 30
0.0
 42
-0.0150464474299546
  0
VERTEX
  5
149A
  8
DATA
  6
CONTINUOUS
 62
     7
 10
167.20218782900281
 20
135.49638783150411
 30
0.0
  0
VERTEX
  5
149B
  8
DATA
  6
CONTINUOUS
 62
     7
 10
167.2008084470489
 20
135.50342461989939
 30
0.0
 42
-0.0231979914916536
  0
VERTEX
  5
149C
  8
DATA
  6
CONTINUOUS
 62
     7
 10
167.18847167713619
 20
135.5866381717758
 30
0.0
  0
VERTEX
  5
149D
  8
DATA
  6
CONTINUOUS
 62
     7
 10
167.1873491684259
 20
135.5977370278226
 30
0.0
 42
-0.0133060744140488
  0
VERTEX
  5
149E
  8
DATA
  6
CONTINUOUS
 62
     7
 10
167.18267329655441
 20
135.6606520760437
 30
0.0
  0
VERTEX
  5
149F
  8
DATA
  6
CONTINUOUS
 62
     7
 10
167.18262452768221
 20
135.6616764306678
 30
0.0
 42
-0.011575652373083
  0
VERTEX
  5
14A0
  8
DATA
  6
CONTINUOUS
 62
     7
 10
167.1811337996262
 20
135.72270174359929
 30
0.0
  0
VERTEX
  5
14A1
  8
DATA
  6
CONTINUOUS
 62
     7
 10
167.18113250481571
 20
135.7247360988691
 30
0.0
  0
SEQEND
  5
14A2
  8
DATA
  6
CONTINUOUS
 62
     7
  0
POLYLINE
  5
B37
  8
DATA
  6
CONTINUOUS
 62
     7
 66
     1
 10
0.0
 20
0.0
 30
0.0
 70
   128
  0
VERTEX
  5
14A3
  8
DATA
  6
CONTINUOUS
 62
     7
 10
167.18113250481571
 20
135.7247360988691
 30
0.0
  0
VERTEX
  5
14A4
  8
DATA
  6
CONTINUOUS
 62
     7
 10
167.18113298893451
 20
135.73425662372031
 30
0.0
 42
-0.0251109579282832
  0
VERTEX
  5
14A5
  8
DATA
  6
CONTINUOUS
 62
     7
 10
167.18672610254691
 20
135.84544159638571
 30
0.0
  0
VERTEX
  5
14A6
  8
DATA
  6
CONTINUOUS
 62
     7
 10
167.18819353150869
 20
135.8599975403379
 30
0.0
 42
-0.0215269927954228
  0
VERTEX
  5
14A7
  8
DATA
  6
CONTINUOUS
 62
     7
 10
167.19994054246331
 20
135.94128356086151
 30
0.0
  0
VERTEX
  5
14A8
  8
DATA
  6
CONTINUOUS
 62
     7
 10
167.1999758500238
 20
135.94147060741381
 30
0.0
 42
-0.0159304978048516
  0
VERTEX
  5
14A9
  8
DATA
  6
CONTINUOUS
 62
     7
 10
167.21769801976251
 20
136.021311755406
 30
0.0
  0
VERTEX
  5
14AA
  8
DATA
  6
CONTINUOUS
 62
     7
 10
167.2179550377156
 20
136.0223171245016
 30
0.0
 42
-0.0227545304622693
  0
VERTEX
  5
14AB
  8
DATA
  6
CONTINUOUS
 62
     7
 10
167.241177597648
 20
136.09852536062249
 30
0.0
  0
VERTEX
  5
14AC
  8
DATA
  6
CONTINUOUS
 62
     7
 10
167.2431063466305
 20
136.10395561295149
 30
0.0
 42
-0.0146983997210693
  0
VERTEX
  5
14AD
  8
DATA
  6
CONTINUOUS
 62
     7
 10
167.2678103515976
 20
136.1675195844314
 30
0.0
 42
-0.0158300806399434
  0
VERTEX
  5
14AE
  8
DATA
  6
CONTINUOUS
 62
     7
 10
167.29634466858579
 20
136.22945355278421
 30
0.0
  0
VERTEX
  5
14AF
  8
DATA
  6
CONTINUOUS
 62
     7
 10
167.29646766074609
 20
136.22969969457759
 30
0.0
 42
-0.0125154270327006
  0
VERTEX
  5
14B0
  8
DATA
  6
CONTINUOUS
 62
     7
 10
167.3287292784141
 20
136.29041465664559
 30
0.0
  0
VERTEX
  5
14B1
  8
DATA
  6
CONTINUOUS
 62
     7
 10
167.337132045244
 20
136.30531587578881
 30
0.0
 42
-0.0229505390151078
  0
VERTEX
  5
14B2
  8
DATA
  6
CONTINUOUS
 62
     7
 10
167.39172398427181
 20
136.3925184643538
 30
0.0
  0
VERTEX
  5
14B3
  8
DATA
  6
CONTINUOUS
 62
     7
 10
167.39678756880571
 20
136.3998373443159
 30
0.0
 42
-0.0151693009221239
  0
VERTEX
  5
14B4
  8
DATA
  6
CONTINUOUS
 62
     7
 10
167.4668962788507
 20
136.49487610703591
 30
0.0
  0
VERTEX
  5
14B5
  8
DATA
  6
CONTINUOUS
 62
     7
 10
167.4702140545987
 20
136.49909925122481
 30
0.0
 42
-0.0196458208928547
  0
VERTEX
  5
14B6
  8
DATA
  6
CONTINUOUS
 62
     7
 10
167.53978378227441
 20
136.5808296715287
 30
0.0
  0
VERTEX
  5
14B7
  8
DATA
  6
CONTINUOUS
 62
     7
 10
167.55027676674419
 20
136.59221846255079
 30
0.0
 42
-0.0099452056506815
  0
VERTEX
  5
14B8
  8
DATA
  6
CONTINUOUS
 62
     7
 10
167.6031704725994
 20
136.64738455493091
 30
0.0
 42
-0.0094819534220443
  0
VERTEX
  5
14B9
  8
DATA
  6
CONTINUOUS
 62
     7
 10
167.6581680843606
 20
136.7004554023126
 30
0.0
  0
VERTEX
  5
14BA
  8
DATA
  6
CONTINUOUS
 62
     7
 10
167.67219849733829
 20
136.71348964208701
 30
0.0
 42
-0.0167888121015959
  0
VERTEX
  5
14BB
  8
DATA
  6
CONTINUOUS
 62
     7
 10
167.7587888005927
 20
136.78867758923971
 30
0.0
  0
VERTEX
  5
14BC
  8
DATA
  6
CONTINUOUS
 62
     7
 10
167.77910500669859
 20
136.80515559185079
 30
0.0
 42
-0.0107476277644433
  0
VERTEX
  5
14BD
  8
DATA
  6
CONTINUOUS
 62
     7
 10
167.85642127358241
 20
136.86515669590571
 30
0.0
  0
VERTEX
  5
14BE
  8
DATA
  6
CONTINUOUS
 62
     7
 10
167.8619108787916
 20
136.86923090566779
 30
0.0
 42
-0.0073328930930146
  0
VERTEX
  5
14BF
  8
DATA
  6
CONTINUOUS
 62
     7
 10
167.9302592446069
 20
136.91841902886941
 30
0.0
 42
-0.0068279369346823
  0
VERTEX
  5
14C0
  8
DATA
  6
CONTINUOUS
 62
     7
 10
167.99997407821539
 20
136.96565265428899
 30
0.0
  0
VERTEX
  5
14C1
  8
DATA
  6
CONTINUOUS
 62
     7
 10
168.01953371873429
 20
136.97851866193719
 30
0.0
 42
-0.0125004867761561
  0
VERTEX
  5
14C2
  8
DATA
  6
CONTINUOUS
 62
     7
 10
168.13074403726509
 20
137.04775144052681
 30
0.0
  0
VERTEX
  5
14C3
  8
DATA
  6
CONTINUOUS
 62
     7
 10
168.1524725917198
 20
137.06053598585959
 30
0.0
 42
-0.011198528416961
  0
VERTEX
  5
14C4
  8
DATA
  6
CONTINUOUS
 62
     7
 10
168.31085296815181
 20
137.14900935514979
 30
0.0
  0
VERTEX
  5
14C5
  8
DATA
  6
CONTINUOUS
 62
     7
 10
168.31427011100001
 20
137.1508190285268
 30
0.0
 42
-0.0101041587475034
  0
VERTEX
  5
14C6
  8
DATA
  6
CONTINUOUS
 62
     7
 10
168.48318709750561
 20
137.23595016874219
 30
0.0
  0
VERTEX
  5
14C7
  8
DATA
  6
CONTINUOUS
 62
     7
 10
168.48664653022581
 20
137.23760686989829
 30
0.0
 42
-0.00907287398509
  0
VERTEX
  5
14C8
  8
DATA
  6
CONTINUOUS
 62
     7
 10
168.6656870249497
 20
137.31938844464659
 30
0.0
  0
VERTEX
  5
14C9
  8
DATA
  6
CONTINUOUS
 62
     7
 10
168.6693481841771
 20
137.3209811357226
 30
0.0
 42
-0.0082424131720011
  0
VERTEX
  5
14CA
  8
DATA
  6
CONTINUOUS
 62
     7
 10
168.85849089729609
 20
137.39958080485169
 30
0.0
  0
VERTEX
  5
14CB
  8
DATA
  6
CONTINUOUS
 62
     7
 10
168.86237609106081
 20
137.40112072530721
 30
0.0
 42
-0.0074491473920229
  0
VERTEX
  5
14CC
  8
DATA
  6
CONTINUOUS
 62
     7
 10
169.06171122701949
 20
137.4767121203086
 30
0.0
  0
VERTEX
  5
14CD
  8
DATA
  6
CONTINUOUS
 62
     7
 10
169.08690936795341
 20
137.48584069255321
 30
0.0
 42
-0.0064936015108178
  0
VERTEX
  5
14CE
  8
DATA
  6
CONTINUOUS
 62
     7
 10
169.2441743454448
 20
137.54051357700709
 30
0.0
 42
-0.003281447948052
  0
VERTEX
  5
14CF
  8
DATA
  6
CONTINUOUS
 62
     7
 10
169.40248799309171
 20
137.592104935967
 30
0.0
  0
VERTEX
  5
14D0
  8
DATA
  6
CONTINUOUS
 62
     7
 10
169.40691975146899
 20
137.59351705475271
 30
0.0
 42
-0.0058911999186126
  0
VERTEX
  5
14D1
  8
DATA
  6
CONTINUOUS
 62
     7
 10
169.5750410933228
 20
137.6449127024855
 30
0.0
  0
VERTEX
  5
14D2
  8
DATA
  6
CONTINUOUS
 62
     7
 10
169.60870993884461
 20
137.65477322763519
 30
0.0
 42
-0.0057205016669947
  0
VERTEX
  5
14D3
  8
DATA
  6
CONTINUOUS
 62
     7
 10
169.84553456357901
 20
137.72119938405501
 30
0.0
  0
VERTEX
  5
14D4
  8
DATA
  6
CONTINUOUS
 62
     7
 10
169.8512928139061
 20
137.7227436585294
 30
0.0
 42
-0.0051393485668744
  0
VERTEX
  5
14D5
  8
DATA
  6
CONTINUOUS
 62
     7
 10
170.10105424453221
 20
137.7869814739968
 30
0.0
  0
VERTEX
  5
14D6
  8
DATA
  6
CONTINUOUS
 62
     7
 10
170.1046172487803
 20
137.78785892319161
 30
0.0
 42
-0.0047988655407601
  0
VERTEX
  5
14D7
  8
DATA
  6
CONTINUOUS
 62
     7
 10
170.36274996121239
 20
137.84880680172469
 30
0.0
  0
VERTEX
  5
14D8
  8
DATA
  6
CONTINUOUS
 62
     7
 10
170.36915007822461
 20
137.85025323152891
 30
0.0
 42
-0.0045407002362699
  0
VERTEX
  5
14D9
  8
DATA
  6
CONTINUOUS
 62
     7
 10
170.64120283710309
 20
137.90914575326431
 30
0.0
  0
VERTEX
  5
14DA
  8
DATA
  6
CONTINUOUS
 62
     7
 10
170.64487935217841
 20
137.90990674087899
 30
0.0
 42
-0.0040964111342094
  0
VERTEX
  5
14DB
  8
DATA
  6
CONTINUOUS
 62
     7
 10
170.9252758887406
 20
137.96555328931211
 30
0.0
  0
VERTEX
  5
14DC
  8
DATA
  6
CONTINUOUS
 62
     7
 10
170.932386514021
 20
137.9669039867301
 30
0.0
 42
-0.004046904171982
  0
VERTEX
  5
14DD
  8
DATA
  6
CONTINUOUS
 62
     7
 10
171.22789452256629
 20
138.02056282810349
 30
0.0
  0
VERTEX
  5
14DE
  8
DATA
  6
CONTINUOUS
 62
     7
 10
171.23435646847869
 20
138.0216822512769
 30
0.0
 42
-0.0036710205039204
  0
VERTEX
  5
14DF
  8
DATA
  6
CONTINUOUS
 62
     7
 10
171.5435988575417
 20
138.07291761374
 30
0.0
  0
VERTEX
  5
14E0
  8
DATA
  6
CONTINUOUS
 62
     7
 10
171.54878021735459
 20
138.07373702379351
 30
0.0
 42
-0.003536265794412
  0
VERTEX
  5
14E1
  8
DATA
  6
CONTINUOUS
 62
     7
 10
171.86910338066721
 20
138.1220751814416
 30
0.0
  0
VERTEX
  5
14E2
  8
DATA
  6
CONTINUOUS
 62
     7
 10
171.87701586800409
 20
138.12321203480519
 30
0.0
 42
-0.003349329837077
  0
VERTEX
  5
14E3
  8
DATA
  6
CONTINUOUS
 62
     7
 10
172.21381462953931
 20
138.16930224956721
 30
0.0
  0
VERTEX
  5
14E4
  8
DATA
  6
CONTINUOUS
 62
     7
 10
172.21845979503101
 20
138.16990626043531
 30
0.0
 42
-0.003105441955182
  0
VERTEX
  5
14E5
  8
DATA
  6
CONTINUOUS
 62
     7
 10
172.5651240148382
 20
138.21279525935299
 30
0.0
  0
VERTEX
  5
14E6
  8
DATA
  6
CONTINUOUS
 62
     7
 10
172.5739162846904
 20
138.21382762983151
 30
0.0
 42
-0.003076958955192
  0
VERTEX
  5
14E7
  8
DATA
  6
CONTINUOUS
 62
     7
 10
172.93868100524961
 20
138.25438350431759
 30
0.0
  0
VERTEX
  5
14E8
  8
DATA
  6
CONTINUOUS
 62
     7
 10
172.94555901582731
 20
138.2551054056122
 30
0.0
 42
-0.0028205564398924
  0
VERTEX
  5
14E9
  8
DATA
  6
CONTINUOUS
 62
     7
 10
173.32454154099111
 20
138.29272242907609
 30
0.0
  0
VERTEX
  5
14EA
  8
DATA
  6
CONTINUOUS
 62
     7
 10
173.3321402218327
 20
138.2934333950092
 30
0.0
 42
-0.002791507707037
  0
VERTEX
  5
14EB
  8
DATA
  6
CONTINUOUS
 62
     7
 10
173.72672603355281
 20
138.3281314542912
 30
0.0
  0
VERTEX
  5
14EC
  8
DATA
  6
CONTINUOUS
 62
     7
 10
173.7364616524371
 20
138.32893281182589
 30
0.0
 42
-0.00263663485445
  0
VERTEX
  5
14ED
  8
DATA
  6
CONTINUOUS
 62
     7
 10
174.15088070720199
 20
138.36084523170089
 30
0.0
  0
VERTEX
  5
14EE
  8
DATA
  6
CONTINUOUS
 62
     7
 10
174.15674767443579
 20
138.3612659095121
 30
0.0
 42
-0.0025051675854274
  0
VERTEX
  5
14EF
  8
DATA
  6
CONTINUOUS
 62
     7
 10
174.5832114007618
 20
138.38969758675199
 30
0.0
  0
VERTEX
  5
14F0
  8
DATA
  6
CONTINUOUS
 62
     7
 10
174.59408581459439
 20
138.3903678584152
 30
0.0
 42
-0.0024795100586887
  0
VERTEX
  5
14F1
  8
DATA
  6
CONTINUOUS
 62
     7
 10
175.04256683833319
 20
138.41577929927209
 30
0.0
  0
VERTEX
  5
14F2
  8
DATA
  6
CONTINUOUS
 62
     7
 10
175.04970689679041
 20
138.41614835143139
 30
0.0
 42
-0.0022927459465003
  0
VERTEX
  5
14F3
  8
DATA
  6
CONTINUOUS
 62
     7
 10
175.51269402964039
 20
138.4379508216102
 30
0.0
  0
VERTEX
  5
14F4
  8
DATA
  6
CONTINUOUS
 62
     7
 10
175.52365574317619
 20
138.43841665261289
 30
0.0
 42
-0.0023264387096504
  0
VERTEX
  5
14F5
  8
DATA
  6
CONTINUOUS
 62
     7
 10
176.00875167801621
 20
138.456770645755
 30
0.0
  0
VERTEX
  5
14F6
  8
DATA
  6
CONTINUOUS
 62
     7
 10
176.0208515772498
 20
138.45717208480721
 30
0.0
 42
-0.0021872969775062
  0
VERTEX
  5
14F7
  8
DATA
  6
CONTINUOUS
 62
     7
 10
176.53029689048711
 20
138.47184322486609
 30
0.0
  0
VERTEX
  5
14F8
  8
DATA
  6
CONTINUOUS
 62
     7
 10
176.5376791274515
 20
138.4720235033115
 30
0.0
 42
-0.0021518902326528
  0
VERTEX
  5
14F9
  8
DATA
  6
CONTINUOUS
 62
     7
 10
177.0619984852535
 20
138.48257000735219
 30
0.0
  0
VERTEX
  5
14FA
  8
DATA
  6
CONTINUOUS
 62
     7
 10
177.2077968178852
 20
138.4848750043403
 30
0.0
 42
-0.0039295397615842
  0
VERTEX
  5
14FB
  8
DATA
  6
CONTINUOUS
 62
     7
 10
178.02380921148841
 20
138.49136173117699
 30
0.0
  0
VERTEX
  5
14FC
  8
DATA
  6
CONTINUOUS
 62
     7
 10
178.16337362396709
 20
138.49137430493951
 30
0.0
  0
VERTEX
  5
14FD
  8
DATA
  6
CONTINUOUS
 62
     7
 10
178.18103760363141
 20
138.49137509886901
 30
0.0
  0
SEQEND
  5
14FE
  8
DATA
  6
CONTINUOUS
 62
     7
  0
POLYLINE
  5
B94
  8
DATA
  6
CONTINUOUS
 62
     7
 66
     1
 10
0.0
 20
0.0
 30
0.0
 70
   128
  0
VERTEX
  5
14FF
  8
DATA
  6
CONTINUOUS
 62
     7
 10
181.5143225018825
 20
138.4052668911597
 30
0.0
 42
0.0022333956152022
  0
VERTEX
  5
1500
  8
DATA
  6
CONTINUOUS
 62
     7
 10
181.06492465709439
 20
138.4283229558109
 30
0.0
  0
VERTEX
  5
1501
  8
DATA
  6
CONTINUOUS
 62
     7
 10
181.03410791269479
 20
138.4297660055247
 30
0.0
 42
0.0023126963058708
  0
VERTEX
  5
1502
  8
DATA
  6
CONTINUOUS
 62
     7
 10
180.6217579004223
 20
138.4471639803933
 30
0.0
  0
VERTEX
  5
1503
  8
DATA
  6
CONTINUOUS
 62
     7
 10
180.58390388285139
 20
138.44858575847269
 30
0.0
 42
0.0015046323584049
  0
VERTEX
  5
1504
  8
DATA
  6
CONTINUOUS
 62
     7
 10
180.24714642376401
 20
138.46021949164711
 30
0.0
 42
0.0014390774150734
  0
VERTEX
  5
1505
  8
DATA
  6
CONTINUOUS
 62
     7
 10
179.91032569293941
 20
138.46987042128401
 30
0.0
 42
0.0013696426781708
  0
VERTEX
  5
1506
  8
DATA
  6
CONTINUOUS
 62
     7
 10
179.57345544600989
 20
138.4776291565519
 30
0.0
  0
VERTEX
  5
1507
  8
DATA
  6
CONTINUOUS
 62
     7
 10
179.56967558006639
 20
138.4777058547584
 30
0.0
 42
0.001363632251364
  0
VERTEX
  5
1508
  8
DATA
  6
CONTINUOUS
 62
     7
 10
179.22520784813969
 20
138.4837557446092
 30
0.0
  0
VERTEX
  5
1509
  8
DATA
  6
CONTINUOUS
 62
     7
 10
179.21994896344231
 20
138.48383376031509
 30
0.0
 42
0.0013402623488488
  0
VERTEX
  5
150A
  8
DATA
  6
CONTINUOUS
 62
     7
 10
178.8649353963828
 20
138.48814860086901
 30
0.0
  0
VERTEX
  5
150B
  8
DATA
  6
CONTINUOUS
 62
     7
 10
178.7851478690994
 20
138.4889044423013
 30
0.0
 42
0.0023438988564365
  0
VERTEX
  5
150C
  8
DATA
  6
CONTINUOUS
 62
     7
 10
178.27053613769689
 20
138.491366932425
 30
0.0
  0
VERTEX
  5
150D
  8
DATA
  6
CONTINUOUS
 62
     7
 10
178.1922248851117
 20
138.4913745533772
 30
0.0
  0
VERTEX
  5
150E
  8
DATA
  6
CONTINUOUS
 62
     7
 10
178.18103760363141
 20
138.49137509886901
 30
0.0
  0
SEQEND
  5
150F
  8
DATA
  6
CONTINUOUS
 62
     7
  0
LINE
  5
BA6
  8
DATA
  6
CONTINUOUS
 62
     7
 10
150.9680138994575
 20
139.6236978313654
 30
0.0
 11
150.96703321026129
 21
139.62159359638289
 31
0.0
  0
LINE
  5
BA7
  8
DATA
  6
CONTINUOUS
 62
     7
 10
135.1147865048159
 20
137.1282329101173
 30
0.0
 11
75.088414370736672
 21
137.1282329101173
 31
0.0
  0
LINE
  5
BA8
  8
DATA
  6
CONTINUOUS
 62
     7
 10
66.62156975976292
 20
137.1282329101173
 30
0.0
 11
37.100000000309251
 21
137.1282329101173
 31
0.0
  0
LINE
  5
BA9
  8
DATA
  6
CONTINUOUS
 62
     7
 10
135.1147865048159
 20
134.32823291011729
 30
0.0
 11
75.088414370736672
 21
134.32823291011729
 31
0.0
  0
LINE
  5
BAA
  8
DATA
  6
CONTINUOUS
 62
     7
 10
66.62156975976292
 20
134.32823291011729
 30
0.0
 11
39.900000000309227
 21
134.32823291011729
 31
0.0
  0
ARC
  5
BAB
  8
DATA
  6
CONTINUOUS
 62
     7
 10
37.100000000309251
 20
132.1282329101173
 30
0.0
 40
5.0
 50
90.0
 51
180.0
  0
ARC
  5
BAC
  8
DATA
  6
CONTINUOUS
 62
     7
 10
39.900000000309227
 20
129.32823291011729
 30
0.0
 40
5.0
 50
90.0
 51
180.0
  0
LINE
  5
BAD
  8
DATA
  6
CONTINUOUS
 62
     7
 10
16.149999999999991
 20
76.400000000000006
 30
0.0
 11
16.0
 21
76.450000000000017
 31
0.0
  0
LINE
  5
BAE
  8
DATA
  6
CONTINUOUS
 62
     7
 10
112.5
 20
78.250000000130726
 30
0.0
 11
112.5
 21
91.702842089473222
 31
0.0
  0
LINE
  5
BAF
  8
DATA
  6
CONTINUOUS
 62
     7
 10
109.7
 20
78.138000000130731
 30
0.0
 11
109.7
 21
91.702842089474316
 31
0.0
  0
LINE
  5
BB0
  8
DATA
  6
CONTINUOUS
 62
     7
 10
182.10377374635021
 20
68.050000000000011
 30
0.0
 11
182.10377374635021
 21
91.702842090261896
 31
0.0
  0
LINE
  5
BB1
  8
DATA
  6
CONTINUOUS
 62
     7
 10
182.10377374635021
 20
68.050000000000011
 30
0.0
 11
184.9037737463502
 21
68.050000000000011
 31
0.0
  0
ARC
  5
BB2
  8
DATA
  6
CONTINUOUS
 62
     7
 10
110.40000000000001
 20
91.480552957542315
 30
0.0
 40
0.7344470424576823
 50
17.617552931489399
 51
162.3824470685108
  0
ARC
  5
BB3
  8
DATA
  6
CONTINUOUS
 62
     7
 10
111.8
 20
91.925131221405223
 30
0.0
 40
0.7344470424576823
 50
197.61755293148931
 51
342.38244706851083
  0
ARC
  5
BB4
  8
DATA
  6
CONTINUOUS
 62
     7
 10
182.80377374610001
 20
91.480552957542315
 30
0.0
 40
0.7344470424576756
 50
17.61755293148957
 51
162.38244706851111
  0
ARC
  5
BB5
  8
DATA
  6
CONTINUOUS
 62
     7
 10
184.20377374610001
 20
91.925131221405223
 30
0.0
 40
0.7344470424576756
 50
197.61755293148951
 51
342.38244706851037
  0
LINE
  5
BB6
  8
DATA
  6
CONTINUOUS
 62
     7
 10
184.9037737461
 20
91.702842089473776
 30
0.0
 11
184.9037737461
 21
68.050000000000011
 31
0.0
  0
ARC
  5
BB7
  8
DATA
  6
CONTINUOUS
 62
     7
 10
15.000000000309241
 20
207.80000000000001
 30
0.0
 40
0.5
 50
90.0
 51
180.0
  0
ARC
  5
BB8
  8
DATA
  6
CONTINUOUS
 62
     7
 10
20.000000000309239
 20
207.80000000000001
 30
0.0
 40
0.5
 50
0.0
 51
90.0
  0
ARC
  5
BB9
  8
DATA
  6
CONTINUOUS
 62
     7
 10
52.000000000309228
 20
207.80000000000001
 30
0.0
 40
0.5
 50
0.0
 51
90.0
  0
ARC
  5
BBA
  8
DATA
  6
CONTINUOUS
 62
     7
 10
47.000000000309228
 20
207.80000000000001
 30
0.0
 40
0.5
 50
90.0
 51
180.0
  0
ARC
  5
BBB
  8
DATA
  6
CONTINUOUS
 62
     7
 10
112.8
 20
54.822249227941292
 30
0.0
 40
0.5
 50
0.0
 51
90.0
  0
ARC
  5
BBC
  8
DATA
  6
CONTINUOUS
 62
     7
 10
112.8
 20
49.822249227941398
 30
0.0
 40
0.5
 50
270.0
 51
0.0
  0
ARC
  5
BBD
  8
DATA
  6
CONTINUOUS
 62
     7
 10
112.8
 20
15.82224922794131
 30
0.0
 40
0.5
 50
0.0
 51
90.0
  0
ARC
  5
BBE
  8
DATA
  6
CONTINUOUS
 62
     7
 10
112.8
 20
10.82224922794137
 30
0.0
 40
0.5
 50
270.0
 51
0.0
  0
LINE
  5
BBF
  8
DATA
  6
CONTINUOUS
 62
     7
 10
181.51194938790169
 20
133.04407266335861
 30
0.0
 11
181.84765250481581
 21
133.072
 31
0.0
  0
LINE
  5
BC0
  8
DATA
  6
CONTINUOUS
 62
     7
 10
181.71395918527571
 20
138.40052898494741
 30
0.0
 11
181.84765250481581
 21
138.40052898494741
 31
0.0
  0
ARC
  5
BC1
  8
DATA
  6
CONTINUOUS
 62
     7
 10
68.984133202057777
 20
138.84769611486081
 30
0.0
 40
4.4194173824158636
 50
315.0000000000008
 51
45.000000000000099
  0
ARC
  5
BC2
  8
DATA
  6
CONTINUOUS
 62
     7
 10
75.234133202057663
 20
132.5976961148609
 30
0.0
 40
4.4194173824158787
 50
135.0000000000004
 51
225.0002750201815
  0
ARC
  5
BC3
  8
DATA
  6
CONTINUOUS
 62
     7
 10
66.326979825109589
 20
138.84769611486081
 30
0.0
 40
4.4194173824158707
 50
315.0000000000008
 51
45.0
  0
ARC
  5
BC4
  8
DATA
  6
CONTINUOUS
 62
     7
 10
72.576989825109578
 20
132.5976961148609
 30
0.0
 40
4.4194244534893441
 50
135.000091673101
 51
225.00009167310029
  0
LINE
  5
BC5
  8
DATA
  6
CONTINUOUS
 62
     7
 10
112.8
 20
55.322249227941292
 30
0.0
 11
112.5
 21
55.322249227941292
 31
0.0
  0
LINE
  5
BC6
  8
DATA
  6
CONTINUOUS
 62
     7
 10
112.8
 20
49.322249227941398
 30
0.0
 11
112.5
 21
49.322249227941398
 31
0.0
  0
LINE
  5
BC7
  8
DATA
  6
CONTINUOUS
 62
     7
 10
112.8
 20
16.32224922794131
 30
0.0
 11
112.5
 21
16.32224922794131
 31
0.0
  0
LINE
  5
BC8
  8
DATA
  6
CONTINUOUS
 62
     7
 10
112.8
 20
10.32224922794137
 30
0.0
 11
112.5
 21
10.32224922794137
 31
0.0
  0
ENDSEC
  0
EOF
